ISO-10303-21;
HEADER;
FILE_DESCRIPTION (( 'STEP AP203' ),
    '1' );
FILE_NAME ('43556.step',
    '2021-10-13T11:36:23',
    ( '' ),
    ( '' ),
    'SwSTEP 2.0',
    'SolidWorks 2019',
    '' );
FILE_SCHEMA (( 'CONFIG_CONTROL_DESIGN' ));
ENDSEC;

DATA;
#1 = ADVANCED_FACE ( 'NONE', ( #190, #88 ), #37, .T. ) ;
#2 = ORIENTED_EDGE ( 'NONE', *, *, #27, .T. ) ;
#3 = AXIS2_PLACEMENT_3D ( 'NONE', #163, #139, #96 ) ;
#4 = CC_DESIGN_SECURITY_CLASSIFICATION ( #126, ( #71 ) ) ;
#5 = CARTESIAN_POINT ( 'NONE',  ( 8.895566965843764895E-15, -3.120144876653154625E-16, 2.547791639863445479 ) ) ;
#6 = CARTESIAN_POINT ( 'NONE',  ( 3.700970219173721104E-13, 6.999999999999987566, 106.0000000000000000 ) ) ;
#7 = PERSON_AND_ORGANIZATION_ROLE ( 'creator' ) ;
#8 = DIRECTION ( 'NONE',  ( -3.491481338843133355E-15, 1.224646799147353207E-16, -1.000000000000000000 ) ) ;
#9 = CC_DESIGN_PERSON_AND_ORGANIZATION_ASSIGNMENT ( #32, #155, ( #71 ) ) ;
#10 = CARTESIAN_POINT ( 'NONE',  ( 1.710825856033135470E-13, 6.999999999999987566, 49.00000000000000000 ) ) ;
#11 = CARTESIAN_POINT ( 'NONE',  ( 1.710825856033135470E-13, 6.999999999999987566, 49.00000000000000000 ) ) ;
#12 = PRODUCT_DEFINITION_SHAPE ( 'NONE', 'NONE',  #150 ) ;
#13 = CARTESIAN_POINT ( 'NONE',  ( 1.710825856033135470E-13, -6.000769315822030937E-15, 49.00000000000000000 ) ) ;
#14 = ADVANCED_BREP_SHAPE_REPRESENTATION ( '43556', ( #170, #103, #104 ), #49 ) ;
#15 = CONICAL_SURFACE ( 'NONE', #39, 6.999999999999987566, 1.221730476396026610 ) ;
#16 = SECURITY_CLASSIFICATION_LEVEL ( 'unclassified' ) ;
#17 = CALENDAR_DATE ( 2021, 13, 10 ) ;
#18 = CARTESIAN_POINT ( 'NONE',  ( 1.710825856033135470E-13, 5.249159239316488490E-32, 49.00000000000000000 ) ) ;
#19 = PLANE ( 'NONE',  #65 ) ;
#20 = DIRECTION ( 'NONE',  ( 0.0000000000000000000, 1.000000000000000000, 0.0000000000000000000 ) ) ;
#21 =( NAMED_UNIT ( * ) PLANE_ANGLE_UNIT ( ) SI_UNIT ( $, .RADIAN. ) );
#22 = AXIS2_PLACEMENT_3D ( 'NONE', #13, #80, #102 ) ;
#23 = APPROVAL_PERSON_ORGANIZATION ( #29, #87, #28 ) ;
#24 = EDGE_CURVE ( 'NONE', #38, #38, #31, .T. ) ;
#25 = DATE_AND_TIME ( #124, #47 ) ;
#26 = CARTESIAN_POINT ( 'NONE',  ( 8.895566965843768050E-15, 6.999999999999987566, 2.547791639863446367 ) ) ;
#27 = EDGE_CURVE ( 'NONE', #76, #76, #53, .T. ) ;
#28 = APPROVAL_ROLE ( '' ) ;
#29 = PERSON_AND_ORGANIZATION ( #189, #165 ) ;
#30 = EDGE_LOOP ( 'NONE', ( #127 ) ) ;
#31 = CIRCLE ( 'NONE', #22, 6.999999999999993783 ) ;
#32 = PERSON_AND_ORGANIZATION ( #189, #165 ) ;
#33 = ADVANCED_FACE ( 'NONE', ( #154 ), #196, .F. ) ;
#34 = DIRECTION ( 'NONE',  ( -4.402125587170832814E-31, -1.000000000000000000, -1.239088197126293036E-16 ) ) ;
#35 = LOCAL_TIME ( 13, 36, 23.00000000000000000, #114 ) ;
#36 = FACE_OUTER_BOUND ( 'NONE', #128, .T. ) ;
#37 = CYLINDRICAL_SURFACE ( 'NONE', #98, 6.999999999999997335 ) ;
#38 = VERTEX_POINT ( 'NONE', #11 ) ;
#39 = AXIS2_PLACEMENT_3D ( 'NONE', #176, #145, #34 ) ;
#40 = DATE_AND_TIME ( #110, #187 ) ;
#41 = DIRECTION ( 'NONE',  ( -3.491481338843133355E-15, 1.224646799147353207E-16, -1.000000000000000000 ) ) ;
#42 = APPROVAL ( #168, 'UNSPECIFIED' ) ;
#43 = APPROVAL_PERSON_ORGANIZATION ( #54, #60, #149 ) ;
#44 = PERSON_AND_ORGANIZATION ( #189, #165 ) ;
#45 = PERSON_AND_ORGANIZATION_ROLE ( 'classification_officer' ) ;
#46 = CONICAL_SURFACE ( 'NONE', #115, 6.000000000000000888, 0.7853981633974479459 ) ;
#47 = LOCAL_TIME ( 13, 36, 23.00000000000000000, #167 ) ;
#48 = DIRECTION ( 'NONE',  ( 3.491481338843133355E-15, -1.224646799147353207E-16, 1.000000000000000000 ) ) ;
#49 =( GEOMETRIC_REPRESENTATION_CONTEXT ( 3 ) GLOBAL_UNCERTAINTY_ASSIGNED_CONTEXT ( ( #195 ) ) GLOBAL_UNIT_ASSIGNED_CONTEXT ( ( #55, #21, #125 ) ) REPRESENTATION_CONTEXT ( 'NONE', 'WORKASPACE' ) );
#50 = DIRECTION ( 'NONE',  ( -3.491481338843133355E-15, 1.224646799147353207E-16, -1.000000000000000000 ) ) ;
#51 = FACE_OUTER_BOUND ( 'NONE', #100, .T. ) ;
#52 = ORIENTED_EDGE ( 'NONE', *, *, #141, .T. ) ;
#53 = CIRCLE ( 'NONE', #3, 6.000000000000000888 ) ;
#54 = PERSON_AND_ORGANIZATION ( #189, #165 ) ;
#55 =( LENGTH_UNIT ( ) NAMED_UNIT ( * ) SI_UNIT ( .MILLI., .METRE. ) );
#56 = PERSON_AND_ORGANIZATION ( #189, #165 ) ;
#57 = DIRECTION ( 'NONE',  ( 1.000000000000000000, 0.0000000000000000000, 0.0000000000000000000 ) ) ;
#58 = EDGE_LOOP ( 'NONE', ( #162 ) ) ;
#59 = EDGE_CURVE ( 'NONE', #135, #135, #197, .T. ) ;
#60 = APPROVAL ( #151, 'UNSPECIFIED' ) ;
#61 = ORIENTED_EDGE ( 'NONE', *, *, #184, .F. ) ;
#62 = EDGE_LOOP ( 'NONE', ( #203 ) ) ;
#63 = CARTESIAN_POINT ( 'NONE',  ( 1.710825856033135470E-13, -6.000769315822030937E-15, 49.00000000000000000 ) ) ;
#64 = ORIENTED_EDGE ( 'NONE', *, *, #184, .T. ) ;
#65 = AXIS2_PLACEMENT_3D ( 'NONE', #82, #50, #119 ) ;
#66 = DIRECTION ( 'NONE',  ( -4.275831445896958607E-31, -1.000000000000000000, -1.224646799147353207E-16 ) ) ;
#67 = ORIENTED_EDGE ( 'NONE', *, *, #24, .F. ) ;
#68 = APPLICATION_CONTEXT ( 'configuration controlled 3d designs of mechanical parts and assemblies' ) ;
#69 = DIRECTION ( 'NONE',  ( -3.491481338843133355E-15, 1.224646799147353207E-16, -1.000000000000000000 ) ) ;
#70 = PERSON_AND_ORGANIZATION_ROLE ( 'design_owner' ) ;
#71 = PRODUCT_DEFINITION_FORMATION_WITH_SPECIFIED_SOURCE ( 'ANY', '', #160, .NOT_KNOWN. ) ;
#72 = CALENDAR_DATE ( 2021, 13, 10 ) ;
#73 = COORDINATED_UNIVERSAL_TIME_OFFSET ( 1, 0, .AHEAD. ) ;
#74 = VERTEX_POINT ( 'NONE', #26 ) ;
#75 = CIRCLE ( 'NONE', #147, 6.999999999999987566 ) ;
#76 = VERTEX_POINT ( 'NONE', #89 ) ;
#77 = PERSON_AND_ORGANIZATION_ROLE ( 'design_supplier' ) ;
#78 = ADVANCED_FACE ( 'NONE', ( #84, #164 ), #177, .T. ) ;
#79 = LOCAL_TIME ( 13, 36, 23.00000000000000000, #95 ) ;
#80 = DIRECTION ( 'NONE',  ( -3.491481338843133355E-15, 1.224646799147353207E-16, -1.000000000000000000 ) ) ;
#81 = LOCAL_TIME ( 13, 36, 23.00000000000000000, #97 ) ;
#82 = CARTESIAN_POINT ( 'NONE',  ( 3.735885032562152816E-13, 4.499279347985554213E-32, 107.0000000000000000 ) ) ;
#83 = CARTESIAN_POINT ( 'NONE',  ( 0.0000000000000000000, 0.0000000000000000000, 0.0000000000000000000 ) ) ;
#84 = FACE_OUTER_BOUND ( 'NONE', #111, .T. ) ;
#85 = DIRECTION ( 'NONE',  ( 3.491481338843133355E-15, -1.224646799147353207E-16, 1.000000000000000000 ) ) ;
#86 = APPLICATION_PROTOCOL_DEFINITION ( 'international standard', 'config_control_design', 1994, #175 ) ;
#87 = APPROVAL ( #99, 'UNSPECIFIED' ) ;
#88 = FACE_OUTER_BOUND ( 'NONE', #172, .T. ) ;
#89 = CARTESIAN_POINT ( 'NONE',  ( 3.735885032562152816E-13, 5.999999999999987566, 107.0000000000000000 ) ) ;
#90 = CC_DESIGN_APPROVAL ( #60, ( #150 ) ) ;
#91 = APPROVAL_DATE_TIME ( #191, #60 ) ;
#92 = EDGE_LOOP ( 'NONE', ( #67 ) ) ;
#93 = FACE_BOUND ( 'NONE', #157, .T. ) ;
#94 = CC_DESIGN_PERSON_AND_ORGANIZATION_ASSIGNMENT ( #108, #70, ( #160 ) ) ;
#95 = COORDINATED_UNIVERSAL_TIME_OFFSET ( 1, 0, .AHEAD. ) ;
#96 = DIRECTION ( 'NONE',  ( 0.0000000000000000000, 1.000000000000000000, 0.0000000000000000000 ) ) ;
#97 = COORDINATED_UNIVERSAL_TIME_OFFSET ( 1, 0, .AHEAD. ) ;
#98 = AXIS2_PLACEMENT_3D ( 'NONE', #134, #8, #185 ) ;
#99 = APPROVAL_STATUS ( 'not_yet_approved' ) ;
#100 = EDGE_LOOP ( 'NONE', ( #183 ) ) ;
#101 = CARTESIAN_POINT ( 'NONE',  ( 3.700970219173721104E-13, -1.298125607096194306E-14, 106.0000000000000000 ) ) ;
#102 = DIRECTION ( 'NONE',  ( 0.0000000000000000000, 1.000000000000000000, 0.0000000000000000000 ) ) ;
#103 = MANIFOLD_SOLID_BREP ( 'Corps-Déplacer/Copier1[2]', #142 ) ;
#104 = AXIS2_PLACEMENT_3D ( 'NONE', #181, #106, #57 ) ;
#105 = CC_DESIGN_PERSON_AND_ORGANIZATION_ASSIGNMENT ( #173, #45, ( #126 ) ) ;
#106 = DIRECTION ( 'NONE',  ( 0.0000000000000000000, 0.0000000000000000000, 1.000000000000000000 ) ) ;
#107 = CIRCLE ( 'NONE', #158, 7.000000000000000888 ) ;
#108 = PERSON_AND_ORGANIZATION ( #189, #165 ) ;
#109 = APPROVAL_ROLE ( '' ) ;
#110 = CALENDAR_DATE ( 2021, 13, 10 ) ;
#111 = EDGE_LOOP ( 'NONE', ( #61 ) ) ;
#112 = DATE_AND_TIME ( #199, #81 ) ;
#113 = APPROVAL_DATE_TIME ( #140, #87 ) ;
#114 = COORDINATED_UNIVERSAL_TIME_OFFSET ( 1, 0, .AHEAD. ) ;
#115 = AXIS2_PLACEMENT_3D ( 'NONE', #166, #153, #152 ) ;
#116 = APPROVAL_DATE_TIME ( #25, #42 ) ;
#117 = AXIS2_PLACEMENT_3D ( 'NONE', #63, #148, #20 ) ;
#118 = PRODUCT_RELATED_PRODUCT_CATEGORY ( 'detail', '', ( #160 ) ) ;
#119 = DIRECTION ( 'NONE',  ( 4.275831445896958607E-31, 1.000000000000000000, 1.224646799147353207E-16 ) ) ;
#120 = FACE_OUTER_BOUND ( 'NONE', #62, .T. ) ;
#121 = VERTEX_POINT ( 'NONE', #6 ) ;
#122 = CC_DESIGN_PERSON_AND_ORGANIZATION_ASSIGNMENT ( #44, #77, ( #71 ) ) ;
#123 = ORIENTED_EDGE ( 'NONE', *, *, #59, .F. ) ;
#124 = CALENDAR_DATE ( 2021, 13, 10 ) ;
#125 =( NAMED_UNIT ( * ) SI_UNIT ( $, .STERADIAN. ) SOLID_ANGLE_UNIT ( ) );
#126 = SECURITY_CLASSIFICATION ( '', '', #16 ) ;
#127 = ORIENTED_EDGE ( 'NONE', *, *, #24, .T. ) ;
#128 = EDGE_LOOP ( 'NONE', ( #123 ) ) ;
#129 = CARTESIAN_POINT ( 'NONE',  ( 1.710825856033135470E-13, 5.249159239316488490E-32, 49.00000000000000000 ) ) ;
#130 = ADVANCED_FACE ( 'NONE', ( #36 ), #146, .T. ) ;
#131 = DIRECTION ( 'NONE',  ( 4.275831445896958607E-31, 1.000000000000000000, 1.224646799147353454E-16 ) ) ;
#132 = AXIS2_PLACEMENT_3D ( 'NONE', #129, #48, #66 ) ;
#133 = APPLICATION_PROTOCOL_DEFINITION ( 'international standard', 'config_control_design', 1994, #68 ) ;
#134 = CARTESIAN_POINT ( 'NONE',  ( 0.0000000000000000000, 0.0000000000000000000, 0.0000000000000000000 ) ) ;
#135 = VERTEX_POINT ( 'NONE', #10 ) ;
#136 = DATE_TIME_ROLE ( 'creation_date' ) ;
#137 = ADVANCED_FACE ( 'NONE', ( #186 ), #15, .T. ) ;
#138 = AXIS2_PLACEMENT_3D ( 'NONE', #83, #69, #131 ) ;
#139 = DIRECTION ( 'NONE',  ( -3.491481338843133355E-15, 1.224646799147353207E-16, -1.000000000000000000 ) ) ;
#140 = DATE_AND_TIME ( #17, #35 ) ;
#141 = EDGE_CURVE ( 'NONE', #121, #121, #107, .T. ) ;
#142 = CLOSED_SHELL ( 'NONE', ( #78, #130, #137 ) ) ;
#143 = DIRECTION ( 'NONE',  ( -4.275831445896958607E-31, -1.000000000000000000, -1.224646799147353207E-16 ) ) ;
#144 = CC_DESIGN_DATE_AND_TIME_ASSIGNMENT ( #112, #202, ( #126 ) ) ;
#145 = DIRECTION ( 'NONE',  ( 3.491481338843133355E-15, -1.224646799147353207E-16, 1.000000000000000000 ) ) ;
#146 = PLANE ( 'NONE',  #132 ) ;
#147 = AXIS2_PLACEMENT_3D ( 'NONE', #5, #41, #182 ) ;
#148 = DIRECTION ( 'NONE',  ( -3.491481338843133355E-15, 1.224646799147353207E-16, -1.000000000000000000 ) ) ;
#149 = APPROVAL_ROLE ( '' ) ;
#150 = PRODUCT_DEFINITION ( 'UNKNOWN', '', #71, #156 ) ;
#151 = APPROVAL_STATUS ( 'not_yet_approved' ) ;
#152 = DIRECTION ( 'NONE',  ( 0.0000000000000000000, 1.000000000000000000, 0.0000000000000000000 ) ) ;
#153 = DIRECTION ( 'NONE',  ( -3.491481338843133355E-15, 1.224646799147353207E-16, -1.000000000000000000 ) ) ;
#154 = FACE_OUTER_BOUND ( 'NONE', #30, .T. ) ;
#155 = PERSON_AND_ORGANIZATION_ROLE ( 'creator' ) ;
#156 = DESIGN_CONTEXT ( 'detailed design', #68, 'design' ) ;
#157 = EDGE_LOOP ( 'NONE', ( #2 ) ) ;
#158 = AXIS2_PLACEMENT_3D ( 'NONE', #101, #188, #161 ) ;
#159 = CC_DESIGN_PERSON_AND_ORGANIZATION_ASSIGNMENT ( #192, #7, ( #150 ) ) ;
#160 = PRODUCT ( '43556', '43556', '', ( #179 ) ) ;
#161 = DIRECTION ( 'NONE',  ( 0.0000000000000000000, 1.000000000000000000, 0.0000000000000000000 ) ) ;
#162 = ORIENTED_EDGE ( 'NONE', *, *, #59, .T. ) ;
#163 = CARTESIAN_POINT ( 'NONE',  ( 3.735885032562152816E-13, -1.310372075087667979E-14, 107.0000000000000000 ) ) ;
#164 = FACE_OUTER_BOUND ( 'NONE', #58, .T. ) ;
#165 = ORGANIZATION ( 'UNSPECIFIED', 'UNSPECIFIED', '' ) ;
#166 = CARTESIAN_POINT ( 'NONE',  ( 3.735885032562152816E-13, -1.310372075087667979E-14, 107.0000000000000000 ) ) ;
#167 = COORDINATED_UNIVERSAL_TIME_OFFSET ( 1, 0, .AHEAD. ) ;
#168 = APPROVAL_STATUS ( 'not_yet_approved' ) ;
#169 = AXIS2_PLACEMENT_3D ( 'NONE', #18, #85, #143 ) ;
#170 = MANIFOLD_SOLID_BREP ( 'Corps-Déplacer/Copier1[1]', #193 ) ;
#171 = SHAPE_DEFINITION_REPRESENTATION ( #12, #14 ) ;
#172 = EDGE_LOOP ( 'NONE', ( #52 ) ) ;
#173 = PERSON_AND_ORGANIZATION ( #189, #165 ) ;
#174 = ADVANCED_FACE ( 'NONE', ( #51 ), #19, .F. ) ;
#175 = APPLICATION_CONTEXT ( 'configuration controlled 3d designs of mechanical parts and assemblies' ) ;
#176 = CARTESIAN_POINT ( 'NONE',  ( 8.895566965843764895E-15, -3.120144876653154625E-16, 2.547791639863445479 ) ) ;
#177 = CYLINDRICAL_SURFACE ( 'NONE', #138, 6.999999999999990230 ) ;
#178 = CC_DESIGN_APPROVAL ( #87, ( #126 ) ) ;
#179 = MECHANICAL_CONTEXT ( 'NONE', #175, 'mechanical' ) ;
#180 = CC_DESIGN_APPROVAL ( #42, ( #71 ) ) ;
#181 = CARTESIAN_POINT ( 'NONE',  ( 0.0000000000000000000, 0.0000000000000000000, 0.0000000000000000000 ) ) ;
#182 = DIRECTION ( 'NONE',  ( 4.402125587170832814E-31, 1.000000000000000000, 1.239088197126293036E-16 ) ) ;
#183 = ORIENTED_EDGE ( 'NONE', *, *, #27, .F. ) ;
#184 = EDGE_CURVE ( 'NONE', #74, #74, #75, .T. ) ;
#185 = DIRECTION ( 'NONE',  ( 4.275831445896958607E-31, 1.000000000000000000, 1.224646799147353454E-16 ) ) ;
#186 = FACE_OUTER_BOUND ( 'NONE', #200, .T. ) ;
#187 = LOCAL_TIME ( 13, 36, 23.00000000000000000, #73 ) ;
#188 = DIRECTION ( 'NONE',  ( -3.491481338843133355E-15, 1.224646799147353207E-16, -1.000000000000000000 ) ) ;
#189 = PERSON ( 'UNSPECIFIED', 'UNSPECIFIED', 'UNSPECIFIED', ('UNSPECIFIED'), ('UNSPECIFIED'), ('UNSPECIFIED') ) ;
#190 = FACE_OUTER_BOUND ( 'NONE', #92, .T. ) ;
#191 = DATE_AND_TIME ( #72, #79 ) ;
#192 = PERSON_AND_ORGANIZATION ( #189, #165 ) ;
#193 = CLOSED_SHELL ( 'NONE', ( #33, #1, #194, #174 ) ) ;
#194 = ADVANCED_FACE ( 'NONE', ( #120, #93 ), #46, .T. ) ;
#195 = UNCERTAINTY_MEASURE_WITH_UNIT (LENGTH_MEASURE( 1.000000000000000082E-05 ), #55, 'distance_accuracy_value', 'NONE');
#196 = PLANE ( 'NONE',  #169 ) ;
#197 = CIRCLE ( 'NONE', #117, 6.999999999999993783 ) ;
#198 = APPROVAL_PERSON_ORGANIZATION ( #56, #42, #109 ) ;
#199 = CALENDAR_DATE ( 2021, 13, 10 ) ;
#200 = EDGE_LOOP ( 'NONE', ( #64 ) ) ;
#201 = CC_DESIGN_DATE_AND_TIME_ASSIGNMENT ( #40, #136, ( #150 ) ) ;
#202 = DATE_TIME_ROLE ( 'classification_date' ) ;
#203 = ORIENTED_EDGE ( 'NONE', *, *, #141, .F. ) ;
ENDSEC;
END-ISO-10303-21;
