ISO-10303-21;
HEADER;
FILE_DESCRIPTION (( 'STEP AP203' ),
    '1' );
FILE_NAME ('43554.step',
    '2021-10-13T11:36:22',
    ( '' ),
    ( '' ),
    'SwSTEP 2.0',
    'SolidWorks 2019',
    '' );
FILE_SCHEMA (( 'CONFIG_CONTROL_DESIGN' ));
ENDSEC;

DATA;
#1 = SHAPE_DEFINITION_REPRESENTATION ( #89, #24 ) ;
#2 = ADVANCED_FACE ( 'NONE', ( #88 ), #124, .F. ) ;
#3 = ORIENTED_EDGE ( 'NONE', *, *, #92, .T. ) ;
#4 = ORIENTED_EDGE ( 'NONE', *, *, #65, .F. ) ;
#5 = DIRECTION ( 'NONE',  ( -3.491481338843133355E-15, 1.224646799147353207E-16, -1.000000000000000000 ) ) ;
#6 = VERTEX_POINT ( 'NONE', #137 ) ;
#7 = CARTESIAN_POINT ( 'NONE',  ( 3.735885032562152816E-13, 5.999999999999987566, 107.0000000000000000 ) ) ;
#8 = DIRECTION ( 'NONE',  ( 0.0000000000000000000, 0.0000000000000000000, 1.000000000000000000 ) ) ;
#9 = CC_DESIGN_DATE_AND_TIME_ASSIGNMENT ( #59, #197, ( #108 ) ) ;
#10 = CARTESIAN_POINT ( 'NONE',  ( 0.0000000000000000000, 0.0000000000000000000, 0.0000000000000000000 ) ) ;
#11 = CIRCLE ( 'NONE', #58, 6.500000000000008882 ) ;
#12 = APPLICATION_CONTEXT ( 'configuration controlled 3d designs of mechanical parts and assemblies' ) ;
#13 = COORDINATED_UNIVERSAL_TIME_OFFSET ( 1, 0, .AHEAD. ) ;
#14 = DESIGN_CONTEXT ( 'detailed design', #12, 'design' ) ;
#15 = ADVANCED_FACE ( 'NONE', ( #169, #103 ), #109, .T. ) ;
#16 = AXIS2_PLACEMENT_3D ( 'NONE', #64, #147, #245 ) ;
#17 = ADVANCED_FACE ( 'NONE', ( #227, #131 ), #231, .T. ) ;
#18 = DIRECTION ( 'NONE',  ( 4.275831445896958607E-31, 1.000000000000000000, 1.224646799147353207E-16 ) ) ;
#19 = FACE_BOUND ( 'NONE', #151, .T. ) ;
#20 = AXIS2_PLACEMENT_3D ( 'NONE', #250, #233, #177 ) ;
#21 = SECURITY_CLASSIFICATION ( '', '', #60 ) ;
#22 = DIRECTION ( 'NONE',  ( 3.491481338843133355E-15, -4.327174794786742882E-16, 1.000000000000000000 ) ) ;
#23 = DATE_AND_TIME ( #127, #251 ) ;
#24 = ADVANCED_BREP_SHAPE_REPRESENTATION ( '43554', ( #132, #206, #160 ), #73 ) ;
#25 = ORIENTED_EDGE ( 'NONE', *, *, #115, .F. ) ;
#26 = EDGE_LOOP ( 'NONE', ( #128 ) ) ;
#27 = CARTESIAN_POINT ( 'NONE',  ( 1.606081415867841091E-13, -6.500000000000029310, 46.00000000000000000 ) ) ;
#28 = APPROVAL_PERSON_ORGANIZATION ( #161, #182, #221 ) ;
#29 = CARTESIAN_POINT ( 'NONE',  ( 3.735885032562152816E-13, -1.310372075087667979E-14, 107.0000000000000000 ) ) ;
#30 = CARTESIAN_POINT ( 'NONE',  ( 2.077431396611664157E-13, -2.574669002898111857E-14, 59.50000000000000000 ) ) ;
#31 = VERTEX_POINT ( 'NONE', #116 ) ;
#32 = EDGE_CURVE ( 'NONE', #172, #172, #11, .T. ) ;
#33 = DIRECTION ( 'NONE',  ( -3.491481338843133355E-15, 4.327174794786742882E-16, -1.000000000000000000 ) ) ;
#34 = PRODUCT ( '43554', '43554', '', ( #179 ) ) ;
#35 = PERSON_AND_ORGANIZATION ( #51, #150 ) ;
#36 = AXIS2_PLACEMENT_3D ( 'NONE', #174, #33, #209 ) ;
#37 = PERSON_AND_ORGANIZATION_ROLE ( 'creator' ) ;
#38 =( NAMED_UNIT ( * ) PLANE_ANGLE_UNIT ( ) SI_UNIT ( $, .RADIAN. ) );
#39 = COORDINATED_UNIVERSAL_TIME_OFFSET ( 1, 0, .AHEAD. ) ;
#40 = ADVANCED_FACE ( 'NONE', ( #146, #186 ), #202, .F. ) ;
#41 = CIRCLE ( 'NONE', #45, 6.500000000000017764 ) ;
#42 = EDGE_LOOP ( 'NONE', ( #46 ) ) ;
#43 = DIRECTION ( 'NONE',  ( 1.560811441114810358E-30, 1.000000000000000000, 4.327174794786742389E-16 ) ) ;
#44 = ORIENTED_EDGE ( 'NONE', *, *, #80, .T. ) ;
#45 = AXIS2_PLACEMENT_3D ( 'NONE', #208, #91, #211 ) ;
#46 = ORIENTED_EDGE ( 'NONE', *, *, #170, .T. ) ;
#47 = ORIENTED_EDGE ( 'NONE', *, *, #80, .F. ) ;
#48 = DIRECTION ( 'NONE',  ( 0.0000000000000000000, 1.000000000000000000, 0.0000000000000000000 ) ) ;
#49 = DIRECTION ( 'NONE',  ( 3.491481338843133355E-15, -1.224646799147353207E-16, 1.000000000000000000 ) ) ;
#50 = FACE_OUTER_BOUND ( 'NONE', #107, .T. ) ;
#51 = PERSON ( 'UNSPECIFIED', 'UNSPECIFIED', 'UNSPECIFIED', ('UNSPECIFIED'), ('UNSPECIFIED'), ('UNSPECIFIED') ) ;
#52 = CARTESIAN_POINT ( 'NONE',  ( 2.059973989917448553E-13, 6.499999999999992895, 59.00000000000000000 ) ) ;
#53 = CARTESIAN_POINT ( 'NONE',  ( 2.099566501331535420E-13, -7.000000000000023981, 60.13397459621552343 ) ) ;
#54 = CARTESIAN_POINT ( 'NONE',  ( 2.077431396611664157E-13, 6.633974596215555408, 59.50000000000000000 ) ) ;
#55 = PERSON_AND_ORGANIZATION ( #51, #150 ) ;
#56 = APPROVAL_STATUS ( 'not_yet_approved' ) ;
#57 = ADVANCED_FACE ( 'NONE', ( #106, #19 ), #120, .T. ) ;
#58 = AXIS2_PLACEMENT_3D ( 'NONE', #260, #243, #63 ) ;
#59 = DATE_AND_TIME ( #81, #262 ) ;
#60 = SECURITY_CLASSIFICATION_LEVEL ( 'unclassified' ) ;
#61 = CC_DESIGN_PERSON_AND_ORGANIZATION_ASSIGNMENT ( #141, #37, ( #108 ) ) ;
#62 = EDGE_LOOP ( 'NONE', ( #167 ) ) ;
#63 = DIRECTION ( 'NONE',  ( 0.0000000000000000000, -1.000000000000000000, 0.0000000000000000000 ) ) ;
#64 = CARTESIAN_POINT ( 'NONE',  ( 0.0000000000000000000, 0.0000000000000000000, 0.0000000000000000000 ) ) ;
#65 = EDGE_CURVE ( 'NONE', #156, #156, #154, .T. ) ;
#66 = CARTESIAN_POINT ( 'NONE',  ( 2.059973989917448553E-13, -2.515349040166370287E-14, 59.00000000000000000 ) ) ;
#67 = AXIS2_PLACEMENT_3D ( 'NONE', #230, #75, #113 ) ;
#68 = CIRCLE ( 'NONE', #121, 6.633974596215581165 ) ;
#69 = EDGE_LOOP ( 'NONE', ( #47 ) ) ;
#70 = FACE_OUTER_BOUND ( 'NONE', #185, .T. ) ;
#71 = DIRECTION ( 'NONE',  ( -3.491481338843133355E-15, 1.224646799147353207E-16, -1.000000000000000000 ) ) ;
#72 = DIRECTION ( 'NONE',  ( 3.491481338843133355E-15, -1.224646799147353207E-16, 1.000000000000000000 ) ) ;
#73 =( GEOMETRIC_REPRESENTATION_CONTEXT ( 3 ) GLOBAL_UNCERTAINTY_ASSIGNED_CONTEXT ( ( #119 ) ) GLOBAL_UNIT_ASSIGNED_CONTEXT ( ( #194, #38, #257 ) ) REPRESENTATION_CONTEXT ( 'NONE', 'WORKASPACE' ) );
#74 = FACE_OUTER_BOUND ( 'NONE', #244, .T. ) ;
#75 = DIRECTION ( 'NONE',  ( -3.491481338843133355E-15, 1.224646799147353207E-16, -1.000000000000000000 ) ) ;
#76 = CALENDAR_DATE ( 2021, 13, 10 ) ;
#77 = AXIS2_PLACEMENT_3D ( 'NONE', #225, #22, #183 ) ;
#78 = LOCAL_TIME ( 13, 36, 22.00000000000000000, #13 ) ;
#79 = PERSON_AND_ORGANIZATION_ROLE ( 'creator' ) ;
#80 = EDGE_CURVE ( 'NONE', #249, #249, #41, .T. ) ;
#81 = CALENDAR_DATE ( 2021, 13, 10 ) ;
#82 = CIRCLE ( 'NONE', #217, 6.000000000000000888 ) ;
#83 = APPLICATION_PROTOCOL_DEFINITION ( 'international standard', 'config_control_design', 1994, #12 ) ;
#84 = ADVANCED_FACE ( 'NONE', ( #70, #94 ), #234, .T. ) ;
#85 = DIRECTION ( 'NONE',  ( -3.491481338843133355E-15, 1.224646799147353207E-16, -1.000000000000000000 ) ) ;
#86 = AXIS2_PLACEMENT_3D ( 'NONE', #157, #49, #235 ) ;
#87 = ORIENTED_EDGE ( 'NONE', *, *, #115, .T. ) ;
#88 = FACE_OUTER_BOUND ( 'NONE', #148, .T. ) ;
#89 = PRODUCT_DEFINITION_SHAPE ( 'NONE', 'NONE',  #108 ) ;
#90 = DIRECTION ( 'NONE',  ( -3.491481338843133355E-15, 4.327174794786742882E-16, -1.000000000000000000 ) ) ;
#91 = DIRECTION ( 'NONE',  ( -3.491481338843133355E-15, 4.327174794786742882E-16, -1.000000000000000000 ) ) ;
#92 = EDGE_CURVE ( 'NONE', #31, #31, #163, .T. ) ;
#93 = DIRECTION ( 'NONE',  ( -3.491481338843133355E-15, 4.327174794786742882E-16, -1.000000000000000000 ) ) ;
#94 = FACE_OUTER_BOUND ( 'NONE', #26, .T. ) ;
#95 = APPROVAL ( #56, 'UNSPECIFIED' ) ;
#96 = CARTESIAN_POINT ( 'NONE',  ( 0.0000000000000000000, 0.0000000000000000000, 0.0000000000000000000 ) ) ;
#97 = LOCAL_TIME ( 13, 36, 22.00000000000000000, #240 ) ;
#98 = DIRECTION ( 'NONE',  ( 0.0000000000000000000, 1.000000000000000000, 0.0000000000000000000 ) ) ;
#99 = PERSON_AND_ORGANIZATION ( #51, #150 ) ;
#100 = DATE_AND_TIME ( #236, #78 ) ;
#101 = AXIS2_PLACEMENT_3D ( 'NONE', #96, #5, #191 ) ;
#102 = PRODUCT_DEFINITION_FORMATION_WITH_SPECIFIED_SOURCE ( 'ANY', '', #34, .NOT_KNOWN. ) ;
#103 = FACE_OUTER_BOUND ( 'NONE', #171, .T. ) ;
#104 = DIRECTION ( 'NONE',  ( -3.491481338843133355E-15, 1.224646799147353207E-16, -1.000000000000000000 ) ) ;
#105 = APPROVAL_PERSON_ORGANIZATION ( #55, #145, #196 ) ;
#106 = FACE_OUTER_BOUND ( 'NONE', #263, .T. ) ;
#107 = EDGE_LOOP ( 'NONE', ( #3 ) ) ;
#108 = PRODUCT_DEFINITION ( 'UNKNOWN', '', #102, #14 ) ;
#109 = CYLINDRICAL_SURFACE ( 'NONE', #16, 6.500000000000008882 ) ;
#110 = AXIS2_PLACEMENT_3D ( 'NONE', #248, #72, #136 ) ;
#111 = CC_DESIGN_APPROVAL ( #182, ( #21 ) ) ;
#112 = PLANE ( 'NONE',  #110 ) ;
#113 = DIRECTION ( 'NONE',  ( -4.740750632337804998E-31, -1.000000000000000000, -1.334402673828311367E-16 ) ) ;
#114 = CARTESIAN_POINT ( 'NONE',  ( 1.606081415867841091E-13, 5.249159239316489585E-32, 46.00000000000000000 ) ) ;
#115 = EDGE_CURVE ( 'NONE', #189, #189, #82, .T. ) ;
#116 = CARTESIAN_POINT ( 'NONE',  ( 1.606081415867841091E-13, -6.500000000000029310, 46.00000000000000000 ) ) ;
#117 = FACE_OUTER_BOUND ( 'NONE', #165, .T. ) ;
#118 = EDGE_CURVE ( 'NONE', #253, #253, #149, .T. ) ;
#119 = UNCERTAINTY_MEASURE_WITH_UNIT (LENGTH_MEASURE( 1.000000000000000082E-05 ), #194, 'distance_accuracy_value', 'NONE');
#120 = CONICAL_SURFACE ( 'NONE', #261, 6.000000000000000888, 0.7853981633974479459 ) ;
#121 = AXIS2_PLACEMENT_3D ( 'NONE', #30, #93, #48 ) ;
#122 = PERSON_AND_ORGANIZATION_ROLE ( 'classification_officer' ) ;
#123 = AXIS2_PLACEMENT_3D ( 'NONE', #207, #252, #134 ) ;
#124 = PLANE ( 'NONE',  #184 ) ;
#125 = CC_DESIGN_PERSON_AND_ORGANIZATION_ASSIGNMENT ( #241, #140, ( #102 ) ) ;
#126 = CARTESIAN_POINT ( 'NONE',  ( 3.735885032562152816E-13, -1.310372075087667979E-14, 107.0000000000000000 ) ) ;
#127 = CALENDAR_DATE ( 2021, 13, 10 ) ;
#128 = ORIENTED_EDGE ( 'NONE', *, *, #92, .F. ) ;
#129 = AXIS2_PLACEMENT_3D ( 'NONE', #152, #71, #155 ) ;
#130 = EDGE_LOOP ( 'NONE', ( #246 ) ) ;
#131 = FACE_OUTER_BOUND ( 'NONE', #130, .T. ) ;
#132 = MANIFOLD_SOLID_BREP ( 'Corps-Déplacer/Copier1[1]', #258 ) ;
#133 = DIRECTION ( 'NONE',  ( 3.491481338843133355E-15, -1.224646799147353207E-16, 1.000000000000000000 ) ) ;
#134 = DIRECTION ( 'NONE',  ( 0.0000000000000000000, 1.000000000000000000, 0.0000000000000000000 ) ) ;
#135 = PLANE ( 'NONE',  #219 ) ;
#136 = DIRECTION ( 'NONE',  ( -4.275831445896958607E-31, -1.000000000000000000, -1.224646799147353207E-16 ) ) ;
#137 = CARTESIAN_POINT ( 'NONE',  ( 8.260169325426375768E-15, -6.500000000000008882, 2.365806522730348860 ) ) ;
#138 = CLOSED_SHELL ( 'NONE', ( #210, #15, #166 ) ) ;
#139 = PRODUCT_RELATED_PRODUCT_CATEGORY ( 'detail', '', ( #34 ) ) ;
#140 = PERSON_AND_ORGANIZATION_ROLE ( 'design_supplier' ) ;
#141 = PERSON_AND_ORGANIZATION ( #51, #150 ) ;
#142 = DATE_AND_TIME ( #220, #97 ) ;
#143 = DATE_TIME_ROLE ( 'classification_date' ) ;
#144 = ORIENTED_EDGE ( 'NONE', *, *, #32, .F. ) ;
#145 = APPROVAL ( #159, 'UNSPECIFIED' ) ;
#146 = FACE_OUTER_BOUND ( 'NONE', #69, .T. ) ;
#147 = DIRECTION ( 'NONE',  ( -3.491481338843133355E-15, 4.327174794786742882E-16, -1.000000000000000000 ) ) ;
#148 = EDGE_LOOP ( 'NONE', ( #25 ) ) ;
#149 = CIRCLE ( 'NONE', #20, 6.999999999999997335 ) ;
#150 = ORGANIZATION ( 'UNSPECIFIED', 'UNSPECIFIED', '' ) ;
#151 = EDGE_LOOP ( 'NONE', ( #87 ) ) ;
#152 = CARTESIAN_POINT ( 'NONE',  ( 1.606081415867841091E-13, -1.990500405601901726E-14, 46.00000000000000000 ) ) ;
#153 = DIRECTION ( 'NONE',  ( -3.491481338843133355E-15, 1.224646799147353207E-16, -1.000000000000000000 ) ) ;
#154 = CIRCLE ( 'NONE', #123, 7.000000000000000888 ) ;
#155 = DIRECTION ( 'NONE',  ( 0.0000000000000000000, -1.000000000000000000, 0.0000000000000000000 ) ) ;
#156 = VERTEX_POINT ( 'NONE', #173 ) ;
#157 = CARTESIAN_POINT ( 'NONE',  ( 8.895566965843764895E-15, -3.120144876653154625E-16, 2.547791639863445479 ) ) ;
#158 = CC_DESIGN_PERSON_AND_ORGANIZATION_ASSIGNMENT ( #238, #239, ( #34 ) ) ;
#159 = APPROVAL_STATUS ( 'not_yet_approved' ) ;
#160 = AXIS2_PLACEMENT_3D ( 'NONE', #10, #8, #254 ) ;
#161 = PERSON_AND_ORGANIZATION ( #51, #150 ) ;
#162 = APPROVAL_DATE_TIME ( #100, #145 ) ;
#163 = CIRCLE ( 'NONE', #129, 6.500000000000008882 ) ;
#164 = DATE_AND_TIME ( #76, #212 ) ;
#165 = EDGE_LOOP ( 'NONE', ( #242 ) ) ;
#166 = ADVANCED_FACE ( 'NONE', ( #74 ), #112, .T. ) ;
#167 = ORIENTED_EDGE ( 'NONE', *, *, #65, .T. ) ;
#168 = CONICAL_SURFACE ( 'NONE', #86, 6.999999999999987566, 1.221730476396026610 ) ;
#169 = FACE_OUTER_BOUND ( 'NONE', #199, .T. ) ;
#170 = EDGE_CURVE ( 'NONE', #6, #6, #175, .T. ) ;
#171 = EDGE_LOOP ( 'NONE', ( #187 ) ) ;
#172 = VERTEX_POINT ( 'NONE', #27 ) ;
#173 = CARTESIAN_POINT ( 'NONE',  ( 3.700970219173721104E-13, 6.999999999999987566, 106.0000000000000000 ) ) ;
#174 = CARTESIAN_POINT ( 'NONE',  ( 0.0000000000000000000, 0.0000000000000000000, 0.0000000000000000000 ) ) ;
#175 = CIRCLE ( 'NONE', #67, 6.500000000000008882 ) ;
#176 = DIRECTION ( 'NONE',  ( -4.275831445896958607E-31, -1.000000000000000000, -1.224646799147353207E-16 ) ) ;
#177 = DIRECTION ( 'NONE',  ( 0.0000000000000000000, -1.000000000000000000, 0.0000000000000000000 ) ) ;
#178 = COORDINATED_UNIVERSAL_TIME_OFFSET ( 1, 0, .AHEAD. ) ;
#179 = MECHANICAL_CONTEXT ( 'NONE', #224, 'mechanical' ) ;
#180 = APPLICATION_PROTOCOL_DEFINITION ( 'international standard', 'config_control_design', 1994, #224 ) ;
#181 = APPROVAL_DATE_TIME ( #164, #95 ) ;
#182 = APPROVAL ( #214, 'UNSPECIFIED' ) ;
#183 = DIRECTION ( 'NONE',  ( 0.0000000000000000000, -1.000000000000000000, 0.0000000000000000000 ) ) ;
#184 = AXIS2_PLACEMENT_3D ( 'NONE', #226, #85, #18 ) ;
#185 = EDGE_LOOP ( 'NONE', ( #44 ) ) ;
#186 = FACE_OUTER_BOUND ( 'NONE', #205, .T. ) ;
#187 = ORIENTED_EDGE ( 'NONE', *, *, #170, .F. ) ;
#188 = DIRECTION ( 'NONE',  ( 0.0000000000000000000, 1.000000000000000000, 0.0000000000000000000 ) ) ;
#189 = VERTEX_POINT ( 'NONE', #7 ) ;
#190 = FACE_OUTER_BOUND ( 'NONE', #42, .T. ) ;
#191 = DIRECTION ( 'NONE',  ( 4.275831445896958607E-31, 1.000000000000000000, 1.224646799147353454E-16 ) ) ;
#192 = FACE_OUTER_BOUND ( 'NONE', #62, .T. ) ;
#193 = COORDINATED_UNIVERSAL_TIME_OFFSET ( 1, 0, .AHEAD. ) ;
#194 =( LENGTH_UNIT ( ) NAMED_UNIT ( * ) SI_UNIT ( .MILLI., .METRE. ) );
#195 = AXIS2_PLACEMENT_3D ( 'NONE', #66, #90, #43 ) ;
#196 = APPROVAL_ROLE ( '' ) ;
#197 = DATE_TIME_ROLE ( 'creation_date' ) ;
#198 = APPROVAL_DATE_TIME ( #23, #182 ) ;
#199 = EDGE_LOOP ( 'NONE', ( #204 ) ) ;
#200 = ORIENTED_EDGE ( 'NONE', *, *, #247, .F. ) ;
#201 = ORIENTED_EDGE ( 'NONE', *, *, #247, .T. ) ;
#202 = TOROIDAL_SURFACE ( 'NONE', #195, 7.500000000000016875, 0.9999999999999986677 ) ;
#203 = ADVANCED_FACE ( 'NONE', ( #117, #192 ), #229, .T. ) ;
#204 = ORIENTED_EDGE ( 'NONE', *, *, #32, .T. ) ;
#205 = EDGE_LOOP ( 'NONE', ( #201 ) ) ;
#206 = MANIFOLD_SOLID_BREP ( 'Corps-Déplacer/Copier1[2]', #138 ) ;
#207 = CARTESIAN_POINT ( 'NONE',  ( 3.700970219173721104E-13, -1.298125607096194306E-14, 106.0000000000000000 ) ) ;
#208 = CARTESIAN_POINT ( 'NONE',  ( 2.059973989917448553E-13, -2.553033128924178300E-14, 59.00000000000000000 ) ) ;
#209 = DIRECTION ( 'NONE',  ( 1.510825004591028205E-30, 1.000000000000000000, 4.327174794786742882E-16 ) ) ;
#210 = ADVANCED_FACE ( 'NONE', ( #190 ), #168, .T. ) ;
#211 = DIRECTION ( 'NONE',  ( 0.0000000000000000000, 1.000000000000000000, 0.0000000000000000000 ) ) ;
#212 = LOCAL_TIME ( 13, 36, 22.00000000000000000, #193 ) ;
#213 = VERTEX_POINT ( 'NONE', #54 ) ;
#214 = APPROVAL_STATUS ( 'not_yet_approved' ) ;
#215 = PERSON_AND_ORGANIZATION ( #51, #150 ) ;
#216 = CC_DESIGN_PERSON_AND_ORGANIZATION_ASSIGNMENT ( #35, #79, ( #102 ) ) ;
#217 = AXIS2_PLACEMENT_3D ( 'NONE', #29, #153, #98 ) ;
#218 = APPROVAL_ROLE ( '' ) ;
#219 = AXIS2_PLACEMENT_3D ( 'NONE', #114, #133, #176 ) ;
#220 = CALENDAR_DATE ( 2021, 13, 10 ) ;
#221 = APPROVAL_ROLE ( '' ) ;
#222 = EDGE_LOOP ( 'NONE', ( #200 ) ) ;
#223 = CC_DESIGN_APPROVAL ( #95, ( #108 ) ) ;
#224 = APPLICATION_CONTEXT ( 'configuration controlled 3d designs of mechanical parts and assemblies' ) ;
#225 = CARTESIAN_POINT ( 'NONE',  ( 2.129803616694311221E-13, -2.639576624819913158E-14, 61.00000000000000000 ) ) ;
#226 = CARTESIAN_POINT ( 'NONE',  ( 3.735885032562152816E-13, 4.499279347985554213E-32, 107.0000000000000000 ) ) ;
#227 = FACE_BOUND ( 'NONE', #222, .T. ) ;
#228 = CC_DESIGN_PERSON_AND_ORGANIZATION_ASSIGNMENT ( #99, #122, ( #21 ) ) ;
#229 = CYLINDRICAL_SURFACE ( 'NONE', #101, 6.999999999999997335 ) ;
#230 = CARTESIAN_POINT ( 'NONE',  ( 8.260169325426378924E-15, -2.897277385463652596E-16, 2.365806522730349748 ) ) ;
#231 = CONICAL_SURFACE ( 'NONE', #77, 7.500000000000020428, 0.5235987755982988157 ) ;
#232 = CC_DESIGN_APPROVAL ( #145, ( #102 ) ) ;
#233 = DIRECTION ( 'NONE',  ( 3.491481338843133355E-15, -4.327174794786742882E-16, 1.000000000000000000 ) ) ;
#234 = CYLINDRICAL_SURFACE ( 'NONE', #36, 6.500000000000008882 ) ;
#235 = DIRECTION ( 'NONE',  ( -4.402125587170832814E-31, -1.000000000000000000, -1.239088197126293036E-16 ) ) ;
#236 = CALENDAR_DATE ( 2021, 13, 10 ) ;
#237 = CC_DESIGN_DATE_AND_TIME_ASSIGNMENT ( #142, #143, ( #21 ) ) ;
#238 = PERSON_AND_ORGANIZATION ( #51, #150 ) ;
#239 = PERSON_AND_ORGANIZATION_ROLE ( 'design_owner' ) ;
#240 = COORDINATED_UNIVERSAL_TIME_OFFSET ( 1, 0, .AHEAD. ) ;
#241 = PERSON_AND_ORGANIZATION ( #51, #150 ) ;
#242 = ORIENTED_EDGE ( 'NONE', *, *, #118, .T. ) ;
#243 = DIRECTION ( 'NONE',  ( -3.491481338843133355E-15, 1.224646799147353207E-16, -1.000000000000000000 ) ) ;
#244 = EDGE_LOOP ( 'NONE', ( #144 ) ) ;
#245 = DIRECTION ( 'NONE',  ( 1.510825004591028205E-30, 1.000000000000000000, 4.327174794786742882E-16 ) ) ;
#246 = ORIENTED_EDGE ( 'NONE', *, *, #118, .F. ) ;
#247 = EDGE_CURVE ( 'NONE', #213, #213, #68, .T. ) ;
#248 = CARTESIAN_POINT ( 'NONE',  ( 1.606081415867841091E-13, 5.249159239316489585E-32, 46.00000000000000000 ) ) ;
#249 = VERTEX_POINT ( 'NONE', #52 ) ;
#250 = CARTESIAN_POINT ( 'NONE',  ( 2.099566501331535420E-13, -2.602102191830901176E-14, 60.13397459621552343 ) ) ;
#251 = LOCAL_TIME ( 13, 36, 22.00000000000000000, #39 ) ;
#252 = DIRECTION ( 'NONE',  ( -3.491481338843133355E-15, 1.224646799147353207E-16, -1.000000000000000000 ) ) ;
#253 = VERTEX_POINT ( 'NONE', #53 ) ;
#254 = DIRECTION ( 'NONE',  ( 1.000000000000000000, 0.0000000000000000000, 0.0000000000000000000 ) ) ;
#255 = ADVANCED_FACE ( 'NONE', ( #50 ), #135, .F. ) ;
#256 = APPROVAL_PERSON_ORGANIZATION ( #215, #95, #218 ) ;
#257 =( NAMED_UNIT ( * ) SI_UNIT ( $, .STERADIAN. ) SOLID_ANGLE_UNIT ( ) );
#258 = CLOSED_SHELL ( 'NONE', ( #203, #57, #2, #84, #17, #40, #255 ) ) ;
#259 = CC_DESIGN_SECURITY_CLASSIFICATION ( #21, ( #102 ) ) ;
#260 = CARTESIAN_POINT ( 'NONE',  ( 1.606081415867841091E-13, -1.990500405601901726E-14, 46.00000000000000000 ) ) ;
#261 = AXIS2_PLACEMENT_3D ( 'NONE', #126, #104, #188 ) ;
#262 = LOCAL_TIME ( 13, 36, 22.00000000000000000, #178 ) ;
#263 = EDGE_LOOP ( 'NONE', ( #4 ) ) ;
ENDSEC;
END-ISO-10303-21;
