ISO-10303-21;
HEADER;
FILE_DESCRIPTION (( 'STEP AP203' ),
    '1' );
FILE_NAME ('43553.step',
    '2021-10-13T11:36:21',
    ( '' ),
    ( '' ),
    'SwSTEP 2.0',
    'SolidWorks 2019',
    '' );
FILE_SCHEMA (( 'CONFIG_CONTROL_DESIGN' ));
ENDSEC;

DATA;
#1 = ORIENTED_EDGE ( 'NONE', *, *, #106, .T. ) ;
#2 = APPROVAL ( #44, 'UNSPECIFIED' ) ;
#3 = DIRECTION ( 'NONE',  ( -3.491481338843133355E-15, 1.224646799147353207E-16, -1.000000000000000000 ) ) ;
#4 = DIRECTION ( 'NONE',  ( -3.491481338843133355E-15, 1.224646799147353207E-16, -1.000000000000000000 ) ) ;
#5 = LOCAL_TIME ( 13, 36, 21.00000000000000000, #22 ) ;
#6 = CARTESIAN_POINT ( 'NONE',  ( 3.526396152231564058E-13, -1.236893267138826416E-14, 100.9999999999999716 ) ) ;
#7 = CARTESIAN_POINT ( 'NONE',  ( 7.624771685008940888E-15, -2.674409894274132817E-16, 2.183821405597239362 ) ) ;
#8 = SHAPE_DEFINITION_REPRESENTATION ( #98, #169 ) ;
#9 = CALENDAR_DATE ( 2021, 13, 10 ) ;
#10 = CIRCLE ( 'NONE', #33, 5.999999999999994671 ) ;
#11 = APPROVAL_DATE_TIME ( #154, #198 ) ;
#12 = EDGE_LOOP ( 'NONE', ( #202 ) ) ;
#13 =( LENGTH_UNIT ( ) NAMED_UNIT ( * ) SI_UNIT ( .MILLI., .METRE. ) );
#14 = FACE_OUTER_BOUND ( 'NONE', #29, .T. ) ;
#15 = CARTESIAN_POINT ( 'NONE',  ( 0.0000000000000000000, 0.0000000000000000000, 0.0000000000000000000 ) ) ;
#16 = VERTEX_POINT ( 'NONE', #176 ) ;
#17 = LOCAL_TIME ( 13, 36, 21.00000000000000000, #84 ) ;
#18 = CC_DESIGN_DATE_AND_TIME_ASSIGNMENT ( #57, #141, ( #171 ) ) ;
#19 = VERTEX_POINT ( 'NONE', #194 ) ;
#20 = MANIFOLD_SOLID_BREP ( 'Corps-Déplacer/Copier1[1]', #119 ) ;
#21 = COORDINATED_UNIVERSAL_TIME_OFFSET ( 1, 0, .AHEAD. ) ;
#22 = COORDINATED_UNIVERSAL_TIME_OFFSET ( 1, 0, .AHEAD. ) ;
#23 = PERSON_AND_ORGANIZATION ( #89, #75 ) ;
#24 = CALENDAR_DATE ( 2021, 13, 10 ) ;
#25 = CC_DESIGN_APPROVAL ( #2, ( #62 ) ) ;
#26 = APPLICATION_CONTEXT ( 'configuration controlled 3d designs of mechanical parts and assemblies' ) ;
#27 = EDGE_LOOP ( 'NONE', ( #187 ) ) ;
#28 = CC_DESIGN_DATE_AND_TIME_ASSIGNMENT ( #199, #170, ( #135 ) ) ;
#29 = EDGE_LOOP ( 'NONE', ( #87 ) ) ;
#30 = CARTESIAN_POINT ( 'NONE',  ( 3.561310965619995770E-13, 3.749399456654627598E-32, 102.0000000000000000 ) ) ;
#31 = DIRECTION ( 'NONE',  ( -5.135813185032638283E-31, -1.000000000000000000, -1.445602896647341875E-16 ) ) ;
#32 = AXIS2_PLACEMENT_3D ( 'NONE', #7, #63, #31 ) ;
#33 = AXIS2_PLACEMENT_3D ( 'NONE', #178, #3, #95 ) ;
#34 = CC_DESIGN_APPROVAL ( #198, ( #135 ) ) ;
#35 = DIRECTION ( 'NONE',  ( -3.491481338843133355E-15, 1.224646799147353207E-16, -1.000000000000000000 ) ) ;
#36 = DIRECTION ( 'NONE',  ( 0.0000000000000000000, 1.000000000000000000, 0.0000000000000000000 ) ) ;
#37 = ADVANCED_FACE ( 'NONE', ( #46 ), #174, .F. ) ;
#38 = VERTEX_POINT ( 'NONE', #164 ) ;
#39 = AXIS2_PLACEMENT_3D ( 'NONE', #181, #185, #41 ) ;
#40 = CARTESIAN_POINT ( 'NONE',  ( 1.466422162314116009E-13, 4.499279347985561328E-32, 42.00000000000000000 ) ) ;
#41 = DIRECTION ( 'NONE',  ( 1.000000000000000000, 0.0000000000000000000, 0.0000000000000000000 ) ) ;
#42 = CC_DESIGN_PERSON_AND_ORGANIZATION_ASSIGNMENT ( #23, #155, ( #117 ) ) ;
#43 =( NAMED_UNIT ( * ) SI_UNIT ( $, .STERADIAN. ) SOLID_ANGLE_UNIT ( ) );
#44 = APPROVAL_STATUS ( 'not_yet_approved' ) ;
#45 = ADVANCED_FACE ( 'NONE', ( #91, #163 ), #129, .T. ) ;
#46 = FACE_OUTER_BOUND ( 'NONE', #160, .T. ) ;
#47 = CONICAL_SURFACE ( 'NONE', #32, 5.999999999999989342, 1.221730476396026388 ) ;
#48 = EDGE_LOOP ( 'NONE', ( #126 ) ) ;
#49 = DIRECTION ( 'NONE',  ( -3.491481338843133355E-15, 1.224646799147353207E-16, -1.000000000000000000 ) ) ;
#50 = AXIS2_PLACEMENT_3D ( 'NONE', #15, #191, #149 ) ;
#51 = PLANE ( 'NONE',  #72 ) ;
#52 = CARTESIAN_POINT ( 'NONE',  ( 0.0000000000000000000, 0.0000000000000000000, 0.0000000000000000000 ) ) ;
#53 = VERTEX_POINT ( 'NONE', #96 ) ;
#54 = CONICAL_SURFACE ( 'NONE', #101, 5.000000000000001776, 0.7853981633974410625 ) ;
#55 = DIRECTION ( 'NONE',  ( 0.0000000000000000000, 1.000000000000000000, 0.0000000000000000000 ) ) ;
#56 = PERSON_AND_ORGANIZATION ( #89, #75 ) ;
#57 = DATE_AND_TIME ( #9, #64 ) ;
#58 = PERSON_AND_ORGANIZATION ( #89, #75 ) ;
#59 = AXIS2_PLACEMENT_3D ( 'NONE', #152, #130, #78 ) ;
#60 = APPROVAL_ROLE ( '' ) ;
#61 = ORIENTED_EDGE ( 'NONE', *, *, #100, .T. ) ;
#62 = PRODUCT_DEFINITION_FORMATION_WITH_SPECIFIED_SOURCE ( 'ANY', '', #117, .NOT_KNOWN. ) ;
#63 = DIRECTION ( 'NONE',  ( 3.491481338843133355E-15, -1.224646799147353207E-16, 1.000000000000000000 ) ) ;
#64 = LOCAL_TIME ( 13, 36, 21.00000000000000000, #21 ) ;
#65 = DIRECTION ( 'NONE',  ( 0.0000000000000000000, 1.000000000000000000, 0.0000000000000000000 ) ) ;
#66 = PLANE ( 'NONE',  #115 ) ;
#67 = DIRECTION ( 'NONE',  ( 4.275831445896959482E-31, 1.000000000000000000, 1.224646799147353207E-16 ) ) ;
#68 = AXIS2_PLACEMENT_3D ( 'NONE', #179, #49, #132 ) ;
#69 =( NAMED_UNIT ( * ) PLANE_ANGLE_UNIT ( ) SI_UNIT ( $, .RADIAN. ) );
#70 = ADVANCED_FACE ( 'NONE', ( #14 ), #51, .T. ) ;
#71 = PERSON_AND_ORGANIZATION_ROLE ( 'creator' ) ;
#72 = AXIS2_PLACEMENT_3D ( 'NONE', #40, #112, #192 ) ;
#73 = DIRECTION ( 'NONE',  ( 4.275831445896958607E-31, 1.000000000000000000, 1.224646799147353207E-16 ) ) ;
#74 = APPLICATION_CONTEXT ( 'configuration controlled 3d designs of mechanical parts and assemblies' ) ;
#75 = ORGANIZATION ( 'UNSPECIFIED', 'UNSPECIFIED', '' ) ;
#76 = APPROVAL_PERSON_ORGANIZATION ( #58, #198, #184 ) ;
#77 = DIRECTION ( 'NONE',  ( -3.491481338843133355E-15, 1.224646799147353207E-16, -1.000000000000000000 ) ) ;
#78 = DIRECTION ( 'NONE',  ( 0.0000000000000000000, 1.000000000000000000, 0.0000000000000000000 ) ) ;
#79 = FACE_OUTER_BOUND ( 'NONE', #90, .T. ) ;
#80 = CARTESIAN_POINT ( 'NONE',  ( 3.561310965619995770E-13, 4.999999999999989342, 102.0000000000000000 ) ) ;
#81 = PRODUCT_RELATED_PRODUCT_CATEGORY ( 'detail', '', ( #117 ) ) ;
#82 = COORDINATED_UNIVERSAL_TIME_OFFSET ( 1, 0, .AHEAD. ) ;
#83 = DESIGN_CONTEXT ( 'detailed design', #74, 'design' ) ;
#84 = COORDINATED_UNIVERSAL_TIME_OFFSET ( 1, 0, .AHEAD. ) ;
#85 = CALENDAR_DATE ( 2021, 13, 10 ) ;
#86 = APPROVAL_ROLE ( '' ) ;
#87 = ORIENTED_EDGE ( 'NONE', *, *, #106, .F. ) ;
#88 = MANIFOLD_SOLID_BREP ( 'Corps-Déplacer/Copier1[2]', #123 ) ;
#89 = PERSON ( 'UNSPECIFIED', 'UNSPECIFIED', 'UNSPECIFIED', ('UNSPECIFIED'), ('UNSPECIFIED'), ('UNSPECIFIED') ) ;
#90 = EDGE_LOOP ( 'NONE', ( #61 ) ) ;
#91 = FACE_OUTER_BOUND ( 'NONE', #12, .T. ) ;
#92 = APPROVAL ( #99, 'UNSPECIFIED' ) ;
#93 = VERTEX_POINT ( 'NONE', #80 ) ;
#94 = FACE_OUTER_BOUND ( 'NONE', #125, .T. ) ;
#95 = DIRECTION ( 'NONE',  ( 0.0000000000000000000, 1.000000000000000000, 0.0000000000000000000 ) ) ;
#96 = CARTESIAN_POINT ( 'NONE',  ( 7.624771685008944043E-15, 5.999999999999989342, 2.183821405597240251 ) ) ;
#97 = CC_DESIGN_PERSON_AND_ORGANIZATION_ASSIGNMENT ( #138, #172, ( #135 ) ) ;
#98 = PRODUCT_DEFINITION_SHAPE ( 'NONE', 'NONE',  #171 ) ;
#99 = APPROVAL_STATUS ( 'not_yet_approved' ) ;
#100 = EDGE_CURVE ( 'NONE', #38, #38, #157, .T. ) ;
#101 = AXIS2_PLACEMENT_3D ( 'NONE', #162, #77, #55 ) ;
#102 = APPLICATION_PROTOCOL_DEFINITION ( 'international standard', 'config_control_design', 1994, #26 ) ;
#103 = APPROVAL_DATE_TIME ( #167, #92 ) ;
#104 = PERSON_AND_ORGANIZATION ( #89, #75 ) ;
#105 =( GEOMETRIC_REPRESENTATION_CONTEXT ( 3 ) GLOBAL_UNCERTAINTY_ASSIGNED_CONTEXT ( ( #177 ) ) GLOBAL_UNIT_ASSIGNED_CONTEXT ( ( #13, #69, #43 ) ) REPRESENTATION_CONTEXT ( 'NONE', 'WORKASPACE' ) );
#106 = EDGE_CURVE ( 'NONE', #16, #16, #10, .T. ) ;
#107 = EDGE_LOOP ( 'NONE', ( #144 ) ) ;
#108 = CIRCLE ( 'NONE', #68, 5.999999999999989342 ) ;
#109 = ADVANCED_FACE ( 'NONE', ( #79 ), #66, .F. ) ;
#110 = FACE_BOUND ( 'NONE', #143, .T. ) ;
#111 = APPROVAL_PERSON_ORGANIZATION ( #56, #92, #86 ) ;
#112 = DIRECTION ( 'NONE',  ( 3.491481338843133355E-15, -1.224646799147353207E-16, 1.000000000000000000 ) ) ;
#113 = FACE_OUTER_BOUND ( 'NONE', #48, .T. ) ;
#114 = CARTESIAN_POINT ( 'NONE',  ( 1.466422162314116009E-13, 4.499279347985561328E-32, 42.00000000000000000 ) ) ;
#115 = AXIS2_PLACEMENT_3D ( 'NONE', #114, #147, #166 ) ;
#116 = DATE_AND_TIME ( #85, #5 ) ;
#117 = PRODUCT ( '43553', '43553', '', ( #156 ) ) ;
#118 = COORDINATED_UNIVERSAL_TIME_OFFSET ( 1, 0, .AHEAD. ) ;
#119 = CLOSED_SHELL ( 'NONE', ( #109, #45, #186, #37 ) ) ;
#120 = APPROVAL_STATUS ( 'not_yet_approved' ) ;
#121 = APPROVAL_DATE_TIME ( #116, #2 ) ;
#122 = CC_DESIGN_PERSON_AND_ORGANIZATION_ASSIGNMENT ( #200, #71, ( #171 ) ) ;
#123 = CLOSED_SHELL ( 'NONE', ( #195, #70, #150 ) ) ;
#124 = CC_DESIGN_SECURITY_CLASSIFICATION ( #135, ( #62 ) ) ;
#125 = EDGE_LOOP ( 'NONE', ( #1 ) ) ;
#126 = ORIENTED_EDGE ( 'NONE', *, *, #142, .F. ) ;
#127 = LOCAL_TIME ( 13, 36, 21.00000000000000000, #118 ) ;
#128 = EDGE_CURVE ( 'NONE', #19, #19, #151, .T. ) ;
#129 = CYLINDRICAL_SURFACE ( 'NONE', #50, 5.999999999999998224 ) ;
#130 = DIRECTION ( 'NONE',  ( -3.491481338843133355E-15, 1.224646799147353207E-16, -1.000000000000000000 ) ) ;
#131 = CC_DESIGN_APPROVAL ( #92, ( #171 ) ) ;
#132 = DIRECTION ( 'NONE',  ( 5.135813185032638283E-31, 1.000000000000000000, 1.445602896647341875E-16 ) ) ;
#133 = CARTESIAN_POINT ( 'NONE',  ( 3.561310965619995770E-13, -1.249139735130300089E-14, 102.0000000000000000 ) ) ;
#134 = DIRECTION ( 'NONE',  ( -3.491481338843133355E-15, 1.224646799147353207E-16, -1.000000000000000000 ) ) ;
#135 = SECURITY_CLASSIFICATION ( '', '', #153 ) ;
#136 = APPLICATION_PROTOCOL_DEFINITION ( 'international standard', 'config_control_design', 1994, #74 ) ;
#137 = CC_DESIGN_PERSON_AND_ORGANIZATION_ASSIGNMENT ( #104, #139, ( #62 ) ) ;
#138 = PERSON_AND_ORGANIZATION ( #89, #75 ) ;
#139 = PERSON_AND_ORGANIZATION_ROLE ( 'creator' ) ;
#140 = AXIS2_PLACEMENT_3D ( 'NONE', #30, #175, #73 ) ;
#141 = DATE_TIME_ROLE ( 'creation_date' ) ;
#142 = EDGE_CURVE ( 'NONE', #53, #53, #108, .T. ) ;
#143 = EDGE_LOOP ( 'NONE', ( #203 ) ) ;
#144 = ORIENTED_EDGE ( 'NONE', *, *, #128, .F. ) ;
#145 = AXIS2_PLACEMENT_3D ( 'NONE', #6, #35, #65 ) ;
#146 = EDGE_CURVE ( 'NONE', #93, #93, #165, .T. ) ;
#147 = DIRECTION ( 'NONE',  ( 3.491481338843133355E-15, -1.224646799147353207E-16, 1.000000000000000000 ) ) ;
#148 = CYLINDRICAL_SURFACE ( 'NONE', #189, 5.999999999999992006 ) ;
#149 = DIRECTION ( 'NONE',  ( 4.275831445896958607E-31, 1.000000000000000000, 1.224646799147353207E-16 ) ) ;
#150 = ADVANCED_FACE ( 'NONE', ( #196 ), #47, .T. ) ;
#151 = CIRCLE ( 'NONE', #145, 6.000000000000001776 ) ;
#152 = CARTESIAN_POINT ( 'NONE',  ( 1.466422162314116009E-13, -5.143516556418883322E-15, 42.00000000000000000 ) ) ;
#153 = SECURITY_CLASSIFICATION_LEVEL ( 'unclassified' ) ;
#154 = DATE_AND_TIME ( #158, #17 ) ;
#155 = PERSON_AND_ORGANIZATION_ROLE ( 'design_owner' ) ;
#156 = MECHANICAL_CONTEXT ( 'NONE', #26, 'mechanical' ) ;
#157 = CIRCLE ( 'NONE', #59, 5.999999999999994671 ) ;
#158 = CALENDAR_DATE ( 2021, 13, 10 ) ;
#159 = EDGE_LOOP ( 'NONE', ( #201 ) ) ;
#160 = EDGE_LOOP ( 'NONE', ( #190 ) ) ;
#161 = LOCAL_TIME ( 13, 36, 21.00000000000000000, #82 ) ;
#162 = CARTESIAN_POINT ( 'NONE',  ( 3.561310965619995770E-13, -1.249139735130300089E-14, 102.0000000000000000 ) ) ;
#163 = FACE_OUTER_BOUND ( 'NONE', #159, .T. ) ;
#164 = CARTESIAN_POINT ( 'NONE',  ( 1.466422162314116009E-13, 5.999999999999989342, 42.00000000000000000 ) ) ;
#165 = CIRCLE ( 'NONE', #173, 5.000000000000001776 ) ;
#166 = DIRECTION ( 'NONE',  ( -4.275831445896958607E-31, -1.000000000000000000, -1.224646799147353207E-16 ) ) ;
#167 = DATE_AND_TIME ( #183, #127 ) ;
#168 = PERSON_AND_ORGANIZATION ( #89, #75 ) ;
#169 = ADVANCED_BREP_SHAPE_REPRESENTATION ( '43553', ( #20, #88, #39 ), #105 ) ;
#170 = DATE_TIME_ROLE ( 'classification_date' ) ;
#171 = PRODUCT_DEFINITION ( 'UNKNOWN', '', #62, #83 ) ;
#172 = PERSON_AND_ORGANIZATION_ROLE ( 'classification_officer' ) ;
#173 = AXIS2_PLACEMENT_3D ( 'NONE', #133, #134, #36 ) ;
#174 = PLANE ( 'NONE',  #140 ) ;
#175 = DIRECTION ( 'NONE',  ( -3.491481338843133355E-15, 1.224646799147353207E-16, -1.000000000000000000 ) ) ;
#176 = CARTESIAN_POINT ( 'NONE',  ( 1.466422162314116009E-13, 5.999999999999989342, 42.00000000000000000 ) ) ;
#177 = UNCERTAINTY_MEASURE_WITH_UNIT (LENGTH_MEASURE( 1.000000000000000082E-05 ), #13, 'distance_accuracy_value', 'NONE');
#178 = CARTESIAN_POINT ( 'NONE',  ( 1.466422162314116009E-13, -5.143516556418883322E-15, 42.00000000000000000 ) ) ;
#179 = CARTESIAN_POINT ( 'NONE',  ( 7.624771685008940888E-15, -2.674409894274132817E-16, 2.183821405597239362 ) ) ;
#180 = APPROVAL_PERSON_ORGANIZATION ( #168, #2, #60 ) ;
#181 = CARTESIAN_POINT ( 'NONE',  ( 0.0000000000000000000, 0.0000000000000000000, 0.0000000000000000000 ) ) ;
#182 = PERSON_AND_ORGANIZATION ( #89, #75 ) ;
#183 = CALENDAR_DATE ( 2021, 13, 10 ) ;
#184 = APPROVAL_ROLE ( '' ) ;
#185 = DIRECTION ( 'NONE',  ( 0.0000000000000000000, 0.0000000000000000000, 1.000000000000000000 ) ) ;
#186 = ADVANCED_FACE ( 'NONE', ( #193, #110 ), #54, .T. ) ;
#187 = ORIENTED_EDGE ( 'NONE', *, *, #142, .T. ) ;
#188 = CC_DESIGN_PERSON_AND_ORGANIZATION_ASSIGNMENT ( #182, #197, ( #62 ) ) ;
#189 = AXIS2_PLACEMENT_3D ( 'NONE', #52, #4, #67 ) ;
#190 = ORIENTED_EDGE ( 'NONE', *, *, #146, .F. ) ;
#191 = DIRECTION ( 'NONE',  ( -3.491481338843133355E-15, 1.224646799147353207E-16, -1.000000000000000000 ) ) ;
#192 = DIRECTION ( 'NONE',  ( -4.275831445896958607E-31, -1.000000000000000000, -1.224646799147353207E-16 ) ) ;
#193 = FACE_OUTER_BOUND ( 'NONE', #107, .T. ) ;
#194 = CARTESIAN_POINT ( 'NONE',  ( 3.526396152231564058E-13, 5.999999999999989342, 100.9999999999999716 ) ) ;
#195 = ADVANCED_FACE ( 'NONE', ( #113, #94 ), #148, .T. ) ;
#196 = FACE_OUTER_BOUND ( 'NONE', #27, .T. ) ;
#197 = PERSON_AND_ORGANIZATION_ROLE ( 'design_supplier' ) ;
#198 = APPROVAL ( #120, 'UNSPECIFIED' ) ;
#199 = DATE_AND_TIME ( #24, #161 ) ;
#200 = PERSON_AND_ORGANIZATION ( #89, #75 ) ;
#201 = ORIENTED_EDGE ( 'NONE', *, *, #128, .T. ) ;
#202 = ORIENTED_EDGE ( 'NONE', *, *, #100, .F. ) ;
#203 = ORIENTED_EDGE ( 'NONE', *, *, #146, .T. ) ;
ENDSEC;
END-ISO-10303-21;
