ISO-10303-21;
HEADER;
FILE_DESCRIPTION (( 'STEP AP203' ),
    '1' );
FILE_NAME ('43552.step',
    '2021-10-13T11:36:21',
    ( '' ),
    ( '' ),
    'SwSTEP 2.0',
    'SolidWorks 2019',
    '' );
FILE_SCHEMA (( 'CONFIG_CONTROL_DESIGN' ));
ENDSEC;

DATA;
#1 = CLOSED_SHELL ( 'NONE', ( #125, #41, #84, #79, #176, #20, #23 ) ) ;
#2 = VERTEX_POINT ( 'NONE', #139 ) ;
#3 = PRODUCT_RELATED_PRODUCT_CATEGORY ( 'detail', '', ( #62 ) ) ;
#4 = DIRECTION ( 'NONE',  ( 0.0000000000000000000, -1.000000000000000000, 0.0000000000000000000 ) ) ;
#5 = ORIENTED_EDGE ( 'NONE', *, *, #262, .T. ) ;
#6 = FACE_OUTER_BOUND ( 'NONE', #70, .T. ) ;
#7 = MANIFOLD_SOLID_BREP ( 'Corps-Déplacer/Copier1[2]', #19 ) ;
#8 = DIRECTION ( 'NONE',  ( -3.491481338843133355E-15, 1.224646799147353207E-16, -1.000000000000000000 ) ) ;
#9 = APPROVAL_PERSON_ORGANIZATION ( #105, #116, #149 ) ;
#10 = CC_DESIGN_PERSON_AND_ORGANIZATION_ASSIGNMENT ( #67, #153, ( #259 ) ) ;
#11 = FACE_OUTER_BOUND ( 'NONE', #208, .T. ) ;
#12 = DIRECTION ( 'NONE',  ( 0.0000000000000000000, 1.000000000000000000, 0.0000000000000000000 ) ) ;
#13 = DIRECTION ( 'NONE',  ( 1.510825004591027679E-30, 1.000000000000000000, 4.327174794786742882E-16 ) ) ;
#14 = COORDINATED_UNIVERSAL_TIME_OFFSET ( 1, 0, .AHEAD. ) ;
#15 = CIRCLE ( 'NONE', #93, 5.000000000000001776 ) ;
#16 = FACE_OUTER_BOUND ( 'NONE', #140, .T. ) ;
#17 = CALENDAR_DATE ( 2021, 13, 10 ) ;
#18 = SECURITY_CLASSIFICATION_LEVEL ( 'unclassified' ) ;
#19 = CLOSED_SHELL ( 'NONE', ( #130, #94, #136 ) ) ;
#20 = ADVANCED_FACE ( 'NONE', ( #212, #48 ), #69, .F. ) ;
#21 = SHAPE_DEFINITION_REPRESENTATION ( #197, #240 ) ;
#22 = FACE_OUTER_BOUND ( 'NONE', #159, .T. ) ;
#23 = ADVANCED_FACE ( 'NONE', ( #16 ), #252, .F. ) ;
#24 = PLANE ( 'NONE',  #34 ) ;
#25 = EDGE_LOOP ( 'NONE', ( #229 ) ) ;
#26 = CARTESIAN_POINT ( 'NONE',  ( 1.909873876707991483E-13, -6.000000000000022204, 54.70096189432330647 ) ) ;
#27 = DIRECTION ( 'NONE',  ( 1.510825004591027855E-30, 1.000000000000000000, 4.327174794786742882E-16 ) ) ;
#28 = CARTESIAN_POINT ( 'NONE',  ( 1.431507348925684802E-13, 4.499279347985561328E-32, 41.00000000000000000 ) ) ;
#29 = APPROVAL_PERSON_ORGANIZATION ( #52, #237, #215 ) ;
#30 = DIRECTION ( 'NONE',  ( 3.491481338843133355E-15, -1.224646799147353207E-16, 1.000000000000000000 ) ) ;
#31 = APPLICATION_PROTOCOL_DEFINITION ( 'international standard', 'config_control_design', 1994, #71 ) ;
#32 = DIRECTION ( 'NONE',  ( -3.491481338843133355E-15, 1.224646799147353207E-16, -1.000000000000000000 ) ) ;
#33 = DIRECTION ( 'NONE',  ( -3.491481338843133355E-15, 4.327174794786742882E-16, -1.000000000000000000 ) ) ;
#34 = AXIS2_PLACEMENT_3D ( 'NONE', #28, #185, #227 ) ;
#35 = CC_DESIGN_SECURITY_CLASSIFICATION ( #239, ( #259 ) ) ;
#36 = COORDINATED_UNIVERSAL_TIME_OFFSET ( 1, 0, .AHEAD. ) ;
#37 = COORDINATED_UNIVERSAL_TIME_OFFSET ( 1, 0, .AHEAD. ) ;
#38 = AXIS2_PLACEMENT_3D ( 'NONE', #57, #58, #4 ) ;
#39 = CC_DESIGN_APPROVAL ( #116, ( #207 ) ) ;
#40 = DIRECTION ( 'NONE',  ( 0.0000000000000000000, 1.000000000000000000, 0.0000000000000000000 ) ) ;
#41 = ADVANCED_FACE ( 'NONE', ( #232, #165 ), #121, .T. ) ;
#42 = PLANE ( 'NONE',  #169 ) ;
#43 = ORIENTED_EDGE ( 'NONE', *, *, #73, .F. ) ;
#44 = AXIS2_PLACEMENT_3D ( 'NONE', #124, #8, #204 ) ;
#45 = DIRECTION ( 'NONE',  ( 4.275831445896958607E-31, 1.000000000000000000, 1.224646799147353207E-16 ) ) ;
#46 = DIRECTION ( 'NONE',  ( 0.0000000000000000000, -1.000000000000000000, 0.0000000000000000000 ) ) ;
#47 = CARTESIAN_POINT ( 'NONE',  ( 1.902857329669507616E-13, -2.358310263158774713E-14, 54.50000000000000000 ) ) ;
#48 = FACE_OUTER_BOUND ( 'NONE', #83, .T. ) ;
#49 = CALENDAR_DATE ( 2021, 13, 10 ) ;
#50 = ORIENTED_EDGE ( 'NONE', *, *, #143, .T. ) ;
#51 = ORIENTED_EDGE ( 'NONE', *, *, #61, .T. ) ;
#52 = PERSON_AND_ORGANIZATION ( #179, #163 ) ;
#53 = CONICAL_SURFACE ( 'NONE', #226, 5.999999999999989342, 1.221730476396026388 ) ;
#54 = PERSON_AND_ORGANIZATION_ROLE ( 'classification_officer' ) ;
#55 = LOCAL_TIME ( 13, 36, 21.00000000000000000, #36 ) ;
#56 = CC_DESIGN_PERSON_AND_ORGANIZATION_ASSIGNMENT ( #190, #257, ( #207 ) ) ;
#57 = CARTESIAN_POINT ( 'NONE',  ( 1.909873876707991483E-13, -2.367006235597059303E-14, 54.70096189432330647 ) ) ;
#58 = DIRECTION ( 'NONE',  ( 3.491481338843133355E-15, -4.327174794786742882E-16, 1.000000000000000000 ) ) ;
#59 = EDGE_LOOP ( 'NONE', ( #110 ) ) ;
#60 = FACE_OUTER_BOUND ( 'NONE', #250, .T. ) ;
#61 = EDGE_CURVE ( 'NONE', #241, #241, #174, .T. ) ;
#62 = PRODUCT ( '43552', '43552', '', ( #251 ) ) ;
#63 = AXIS2_PLACEMENT_3D ( 'NONE', #81, #30, #150 ) ;
#64 = DIRECTION ( 'NONE',  ( -3.491481338843133355E-15, 1.224646799147353207E-16, -1.000000000000000000 ) ) ;
#65 = DIRECTION ( 'NONE',  ( -3.491481338843133355E-15, 1.224646799147353207E-16, -1.000000000000000000 ) ) ;
#66 = CARTESIAN_POINT ( 'NONE',  ( 3.526396152231564058E-13, -1.236893267138826416E-14, 100.9999999999999716 ) ) ;
#67 = PERSON_AND_ORGANIZATION ( #179, #163 ) ;
#68 = DIRECTION ( 'NONE',  ( 0.0000000000000000000, 1.000000000000000000, 0.0000000000000000000 ) ) ;
#69 = TOROIDAL_SURFACE ( 'NONE', #217, 6.750000000000016875, 1.000000000000000000 ) ;
#70 = EDGE_LOOP ( 'NONE', ( #51 ) ) ;
#71 = APPLICATION_CONTEXT ( 'configuration controlled 3d designs of mechanical parts and assemblies' ) ;
#72 = EDGE_LOOP ( 'NONE', ( #118 ) ) ;
#73 = EDGE_CURVE ( 'NONE', #199, #199, #158, .T. ) ;
#74 = AXIS2_PLACEMENT_3D ( 'NONE', #142, #82, #45 ) ;
#75 = CIRCLE ( 'NONE', #44, 5.750000000000008882 ) ;
#76 = FACE_OUTER_BOUND ( 'NONE', #230, .T. ) ;
#77 = DIRECTION ( 'NONE',  ( 3.491481338843133355E-15, -1.224646799147353207E-16, 1.000000000000000000 ) ) ;
#78 = DIRECTION ( 'NONE',  ( -3.491481338843133355E-15, 4.327174794786742882E-16, -1.000000000000000000 ) ) ;
#79 = ADVANCED_FACE ( 'NONE', ( #104, #189 ), #85, .T. ) ;
#80 = DIRECTION ( 'NONE',  ( -5.359109410468821594E-31, -1.000000000000000000, -1.508455196501568964E-16 ) ) ;
#81 = CARTESIAN_POINT ( 'NONE',  ( 1.431507348925684802E-13, 4.499279347985561328E-32, 41.00000000000000000 ) ) ;
#82 = DIRECTION ( 'NONE',  ( -3.491481338843133355E-15, 1.224646799147353207E-16, -1.000000000000000000 ) ) ;
#83 = EDGE_LOOP ( 'NONE', ( #233 ) ) ;
#84 = ADVANCED_FACE ( 'NONE', ( #223 ), #42, .F. ) ;
#85 = CYLINDRICAL_SURFACE ( 'NONE', #213, 5.750000000000008882 ) ;
#86 = AXIS2_PLACEMENT_3D ( 'NONE', #228, #138, #46 ) ;
#87 = ORIENTED_EDGE ( 'NONE', *, *, #73, .T. ) ;
#88 =( LENGTH_UNIT ( ) NAMED_UNIT ( * ) SI_UNIT ( .MILLI., .METRE. ) );
#89 = COORDINATED_UNIVERSAL_TIME_OFFSET ( 1, 0, .AHEAD. ) ;
#90 = CC_DESIGN_APPROVAL ( #237, ( #259 ) ) ;
#91 = DATE_AND_TIME ( #155, #109 ) ;
#92 = PERSON_AND_ORGANIZATION ( #179, #163 ) ;
#93 = AXIS2_PLACEMENT_3D ( 'NONE', #164, #101, #40 ) ;
#94 = ADVANCED_FACE ( 'NONE', ( #222, #76 ), #245, .T. ) ;
#95 = VERTEX_POINT ( 'NONE', #180 ) ;
#96 = CIRCLE ( 'NONE', #236, 5.883974596215578501 ) ;
#97 = DIRECTION ( 'NONE',  ( -3.491481338843133355E-15, 4.327174794786742882E-16, -1.000000000000000000 ) ) ;
#98 = FACE_OUTER_BOUND ( 'NONE', #167, .T. ) ;
#99 = DIRECTION ( 'NONE',  ( 1.510825004591027855E-30, 1.000000000000000000, 4.327174794786742882E-16 ) ) ;
#100 = LOCAL_TIME ( 13, 36, 21.00000000000000000, #37 ) ;
#101 = DIRECTION ( 'NONE',  ( -3.491481338843133355E-15, 1.224646799147353207E-16, -1.000000000000000000 ) ) ;
#102 = ORIENTED_EDGE ( 'NONE', *, *, #214, .F. ) ;
#103 = PERSON_AND_ORGANIZATION ( #179, #163 ) ;
#104 = FACE_OUTER_BOUND ( 'NONE', #188, .T. ) ;
#105 = PERSON_AND_ORGANIZATION ( #179, #163 ) ;
#106 = ORIENTED_EDGE ( 'NONE', *, *, #134, .T. ) ;
#107 = CARTESIAN_POINT ( 'NONE',  ( 1.431507348925684802E-13, -5.750000000000025757, 41.00000000000000000 ) ) ;
#108 = AXIS2_PLACEMENT_3D ( 'NONE', #248, #191, #68 ) ;
#109 = LOCAL_TIME ( 13, 36, 21.00000000000000000, #89 ) ;
#110 = ORIENTED_EDGE ( 'NONE', *, *, #262, .F. ) ;
#111 = PERSON_AND_ORGANIZATION_ROLE ( 'creator' ) ;
#112 = APPLICATION_CONTEXT ( 'configuration controlled 3d designs of mechanical parts and assemblies' ) ;
#113 = APPROVAL_DATE_TIME ( #115, #244 ) ;
#114 = CIRCLE ( 'NONE', #253, 5.750000000000008882 ) ;
#115 = DATE_AND_TIME ( #219, #254 ) ;
#116 = APPROVAL ( #128, 'UNSPECIFIED' ) ;
#117 = CIRCLE ( 'NONE', #38, 5.999999999999998224 ) ;
#118 = ORIENTED_EDGE ( 'NONE', *, *, #194, .F. ) ;
#119 = CARTESIAN_POINT ( 'NONE',  ( 3.526396152231564058E-13, 5.999999999999989342, 100.9999999999999716 ) ) ;
#120 = CARTESIAN_POINT ( 'NONE',  ( 3.561310965619995770E-13, 3.749399456654627598E-32, 102.0000000000000000 ) ) ;
#121 = CONICAL_SURFACE ( 'NONE', #137, 5.000000000000001776, 0.7853981633974410625 ) ;
#122 = FACE_BOUND ( 'NONE', #72, .T. ) ;
#123 = UNCERTAINTY_MEASURE_WITH_UNIT (LENGTH_MEASURE( 1.000000000000000082E-05 ), #88, 'distance_accuracy_value', 'NONE');
#124 = CARTESIAN_POINT ( 'NONE',  ( 1.431507348925684802E-13, -1.774141665862564897E-14, 41.00000000000000000 ) ) ;
#125 = ADVANCED_FACE ( 'NONE', ( #60, #6 ), #247, .T. ) ;
#126 = DIRECTION ( 'NONE',  ( 0.0000000000000000000, -1.000000000000000000, 0.0000000000000000000 ) ) ;
#127 = PERSON_AND_ORGANIZATION_ROLE ( 'design_owner' ) ;
#128 = APPROVAL_STATUS ( 'not_yet_approved' ) ;
#129 = ORIENTED_EDGE ( 'NONE', *, *, #134, .F. ) ;
#130 = ADVANCED_FACE ( 'NONE', ( #11 ), #53, .T. ) ;
#131 = APPROVAL_STATUS ( 'not_yet_approved' ) ;
#132 = AXIS2_PLACEMENT_3D ( 'NONE', #161, #243, #126 ) ;
#133 = APPROVAL_DATE_TIME ( #249, #237 ) ;
#134 = EDGE_CURVE ( 'NONE', #95, #95, #75, .T. ) ;
#135 = CONICAL_SURFACE ( 'NONE', #86, 6.500000000000019540, 0.5235987755983007030 ) ;
#136 = ADVANCED_FACE ( 'NONE', ( #98 ), #24, .T. ) ;
#137 = AXIS2_PLACEMENT_3D ( 'NONE', #210, #32, #12 ) ;
#138 = DIRECTION ( 'NONE',  ( 3.491481338843133355E-15, -4.327174794786742882E-16, 1.000000000000000000 ) ) ;
#139 = CARTESIAN_POINT ( 'NONE',  ( 7.307072864800257369E-15, -5.750000000000008882, 2.092828847030693495 ) ) ;
#140 = EDGE_LOOP ( 'NONE', ( #145 ) ) ;
#141 = CARTESIAN_POINT ( 'NONE',  ( 1.885399922975292012E-13, 5.749999999999992895, 54.00000000000000000 ) ) ;
#142 = CARTESIAN_POINT ( 'NONE',  ( 0.0000000000000000000, 0.0000000000000000000, 0.0000000000000000000 ) ) ;
#143 = EDGE_CURVE ( 'NONE', #2, #2, #114, .T. ) ;
#144 = CARTESIAN_POINT ( 'NONE',  ( 0.0000000000000000000, 0.0000000000000000000, 0.0000000000000000000 ) ) ;
#145 = ORIENTED_EDGE ( 'NONE', *, *, #218, .T. ) ;
#146 = VERTEX_POINT ( 'NONE', #216 ) ;
#147 = EDGE_LOOP ( 'NONE', ( #106 ) ) ;
#148 = AXIS2_PLACEMENT_3D ( 'NONE', #144, #97, #99 ) ;
#149 = APPROVAL_ROLE ( '' ) ;
#150 = DIRECTION ( 'NONE',  ( -4.275831445896958607E-31, -1.000000000000000000, -1.224646799147353207E-16 ) ) ;
#151 = DATE_TIME_ROLE ( 'creation_date' ) ;
#152 = DATE_AND_TIME ( #211, #100 ) ;
#153 = PERSON_AND_ORGANIZATION_ROLE ( 'design_supplier' ) ;
#154 = LOCAL_TIME ( 13, 36, 21.00000000000000000, #14 ) ;
#155 = CALENDAR_DATE ( 2021, 13, 10 ) ;
#156 = DATE_TIME_ROLE ( 'classification_date' ) ;
#157 = COORDINATED_UNIVERSAL_TIME_OFFSET ( 1, 0, .AHEAD. ) ;
#158 = CIRCLE ( 'NONE', #108, 5.750000000000015987 ) ;
#159 = EDGE_LOOP ( 'NONE', ( #102 ) ) ;
#160 = VERTEX_POINT ( 'NONE', #225 ) ;
#161 = CARTESIAN_POINT ( 'NONE',  ( 1.431507348925684802E-13, -1.774141665862564897E-14, 41.00000000000000000 ) ) ;
#162 = EDGE_LOOP ( 'NONE', ( #5 ) ) ;
#163 = ORGANIZATION ( 'UNSPECIFIED', 'UNSPECIFIED', '' ) ;
#164 = CARTESIAN_POINT ( 'NONE',  ( 3.561310965619995770E-13, -1.249139735130300089E-14, 102.0000000000000000 ) ) ;
#165 = FACE_BOUND ( 'NONE', #162, .T. ) ;
#166 = DIRECTION ( 'NONE',  ( -5.135813185032638283E-31, -1.000000000000000000, -1.445602896647341875E-16 ) ) ;
#167 = EDGE_LOOP ( 'NONE', ( #129 ) ) ;
#168 = CARTESIAN_POINT ( 'NONE',  ( 0.0000000000000000000, 0.0000000000000000000, 0.0000000000000000000 ) ) ;
#169 = AXIS2_PLACEMENT_3D ( 'NONE', #120, #64, #183 ) ;
#170 = VERTEX_POINT ( 'NONE', #107 ) ;
#171 = DIRECTION ( 'NONE',  ( -3.491481338843133355E-15, 1.224646799147353207E-16, -1.000000000000000000 ) ) ;
#172 = APPROVAL_DATE_TIME ( #258, #116 ) ;
#173 = PERSON_AND_ORGANIZATION ( #179, #163 ) ;
#174 = CIRCLE ( 'NONE', #201, 6.000000000000001776 ) ;
#175 = MANIFOLD_SOLID_BREP ( 'Corps-Déplacer/Copier1[1]', #1 ) ;
#176 = ADVANCED_FACE ( 'NONE', ( #122, #22 ), #135, .T. ) ;
#177 = CIRCLE ( 'NONE', #132, 5.750000000000008882 ) ;
#178 = CC_DESIGN_DATE_AND_TIME_ASSIGNMENT ( #152, #151, ( #207 ) ) ;
#179 = PERSON ( 'UNSPECIFIED', 'UNSPECIFIED', 'UNSPECIFIED', ('UNSPECIFIED'), ('UNSPECIFIED'), ('UNSPECIFIED') ) ;
#180 = CARTESIAN_POINT ( 'NONE',  ( 1.431507348925684802E-13, -5.750000000000025757, 41.00000000000000000 ) ) ;
#181 =( GEOMETRIC_REPRESENTATION_CONTEXT ( 3 ) GLOBAL_UNCERTAINTY_ASSIGNED_CONTEXT ( ( #123 ) ) GLOBAL_UNIT_ASSIGNED_CONTEXT ( ( #88, #209, #192 ) ) REPRESENTATION_CONTEXT ( 'NONE', 'WORKASPACE' ) );
#182 = CC_DESIGN_APPROVAL ( #244, ( #239 ) ) ;
#183 = DIRECTION ( 'NONE',  ( 4.275831445896958607E-31, 1.000000000000000000, 1.224646799147353207E-16 ) ) ;
#184 = CC_DESIGN_PERSON_AND_ORGANIZATION_ASSIGNMENT ( #173, #111, ( #259 ) ) ;
#185 = DIRECTION ( 'NONE',  ( 3.491481338843133355E-15, -1.224646799147353207E-16, 1.000000000000000000 ) ) ;
#186 = DIRECTION ( 'NONE',  ( -3.491481338843133355E-15, 4.327174794786742882E-16, -1.000000000000000000 ) ) ;
#187 = DIRECTION ( 'NONE',  ( 0.0000000000000000000, 1.000000000000000000, 0.0000000000000000000 ) ) ;
#188 = EDGE_LOOP ( 'NONE', ( #87 ) ) ;
#189 = FACE_OUTER_BOUND ( 'NONE', #25, .T. ) ;
#190 = PERSON_AND_ORGANIZATION ( #179, #163 ) ;
#191 = DIRECTION ( 'NONE',  ( -3.491481338843133355E-15, 4.327174794786742882E-16, -1.000000000000000000 ) ) ;
#192 =( NAMED_UNIT ( * ) SI_UNIT ( $, .STERADIAN. ) SOLID_ANGLE_UNIT ( ) );
#193 = ORIENTED_EDGE ( 'NONE', *, *, #143, .F. ) ;
#194 = EDGE_CURVE ( 'NONE', #160, #160, #96, .T. ) ;
#195 = APPLICATION_PROTOCOL_DEFINITION ( 'international standard', 'config_control_design', 1994, #112 ) ;
#196 = CC_DESIGN_PERSON_AND_ORGANIZATION_ASSIGNMENT ( #235, #54, ( #239 ) ) ;
#197 = PRODUCT_DEFINITION_SHAPE ( 'NONE', 'NONE',  #207 ) ;
#198 = ORIENTED_EDGE ( 'NONE', *, *, #61, .F. ) ;
#199 = VERTEX_POINT ( 'NONE', #141 ) ;
#200 = CARTESIAN_POINT ( 'NONE',  ( 7.624771685008940888E-15, -2.674409894274132817E-16, 2.183821405597239362 ) ) ;
#201 = AXIS2_PLACEMENT_3D ( 'NONE', #66, #171, #205 ) ;
#202 = VERTEX_POINT ( 'NONE', #26 ) ;
#203 = CARTESIAN_POINT ( 'NONE',  ( 7.307072864800260524E-15, -2.562976148679385501E-16, 2.092828847030694384 ) ) ;
#204 = DIRECTION ( 'NONE',  ( 0.0000000000000000000, -1.000000000000000000, 0.0000000000000000000 ) ) ;
#205 = DIRECTION ( 'NONE',  ( 0.0000000000000000000, 1.000000000000000000, 0.0000000000000000000 ) ) ;
#206 = DIRECTION ( 'NONE',  ( 1.000000000000000000, 0.0000000000000000000, 0.0000000000000000000 ) ) ;
#207 = PRODUCT_DEFINITION ( 'UNKNOWN', '', #259, #242 ) ;
#208 = EDGE_LOOP ( 'NONE', ( #50 ) ) ;
#209 =( NAMED_UNIT ( * ) PLANE_ANGLE_UNIT ( ) SI_UNIT ( $, .RADIAN. ) );
#210 = CARTESIAN_POINT ( 'NONE',  ( 3.561310965619995770E-13, -1.249139735130300089E-14, 102.0000000000000000 ) ) ;
#211 = CALENDAR_DATE ( 2021, 13, 10 ) ;
#212 = FACE_OUTER_BOUND ( 'NONE', #221, .T. ) ;
#213 = AXIS2_PLACEMENT_3D ( 'NONE', #168, #78, #27 ) ;
#214 = EDGE_CURVE ( 'NONE', #202, #202, #117, .T. ) ;
#215 = APPROVAL_ROLE ( '' ) ;
#216 = CARTESIAN_POINT ( 'NONE',  ( 3.561310965619995770E-13, 4.999999999999989342, 102.0000000000000000 ) ) ;
#217 = AXIS2_PLACEMENT_3D ( 'NONE', #256, #33, #13 ) ;
#218 = EDGE_CURVE ( 'NONE', #170, #170, #177, .T. ) ;
#219 = CALENDAR_DATE ( 2021, 13, 10 ) ;
#220 = APPROVAL_PERSON_ORGANIZATION ( #92, #244, #238 ) ;
#221 = EDGE_LOOP ( 'NONE', ( #43 ) ) ;
#222 = FACE_OUTER_BOUND ( 'NONE', #147, .T. ) ;
#223 = FACE_OUTER_BOUND ( 'NONE', #59, .T. ) ;
#224 = EDGE_LOOP ( 'NONE', ( #198 ) ) ;
#225 = CARTESIAN_POINT ( 'NONE',  ( 1.902857329669507616E-13, 5.883974596215555408, 54.50000000000000000 ) ) ;
#226 = AXIS2_PLACEMENT_3D ( 'NONE', #200, #77, #166 ) ;
#227 = DIRECTION ( 'NONE',  ( -4.275831445896958607E-31, -1.000000000000000000, -1.224646799147353207E-16 ) ) ;
#228 = CARTESIAN_POINT ( 'NONE',  ( 1.940110992070767284E-13, -2.404480668586070969E-14, 55.56698729810778303 ) ) ;
#229 = ORIENTED_EDGE ( 'NONE', *, *, #218, .F. ) ;
#230 = EDGE_LOOP ( 'NONE', ( #193 ) ) ;
#231 = DIRECTION ( 'NONE',  ( 0.0000000000000000000, 0.0000000000000000000, 1.000000000000000000 ) ) ;
#232 = FACE_OUTER_BOUND ( 'NONE', #224, .T. ) ;
#233 = ORIENTED_EDGE ( 'NONE', *, *, #194, .T. ) ;
#234 = CC_DESIGN_PERSON_AND_ORGANIZATION_ASSIGNMENT ( #103, #127, ( #62 ) ) ;
#235 = PERSON_AND_ORGANIZATION ( #179, #163 ) ;
#236 = AXIS2_PLACEMENT_3D ( 'NONE', #47, #186, #187 ) ;
#237 = APPROVAL ( #131, 'UNSPECIFIED' ) ;
#238 = APPROVAL_ROLE ( '' ) ;
#239 = SECURITY_CLASSIFICATION ( '', '', #18 ) ;
#240 = ADVANCED_BREP_SHAPE_REPRESENTATION ( '43552', ( #175, #7, #246 ), #181 ) ;
#241 = VERTEX_POINT ( 'NONE', #119 ) ;
#242 = DESIGN_CONTEXT ( 'detailed design', #71, 'design' ) ;
#243 = DIRECTION ( 'NONE',  ( -3.491481338843133355E-15, 1.224646799147353207E-16, -1.000000000000000000 ) ) ;
#244 = APPROVAL ( #261, 'UNSPECIFIED' ) ;
#245 = CYLINDRICAL_SURFACE ( 'NONE', #148, 5.750000000000008882 ) ;
#246 = AXIS2_PLACEMENT_3D ( 'NONE', #255, #231, #206 ) ;
#247 = CYLINDRICAL_SURFACE ( 'NONE', #74, 5.999999999999998224 ) ;
#248 = CARTESIAN_POINT ( 'NONE',  ( 1.885399922975292012E-13, -2.336674389184841156E-14, 54.00000000000000000 ) ) ;
#249 = DATE_AND_TIME ( #17, #55 ) ;
#250 = EDGE_LOOP ( 'NONE', ( #263 ) ) ;
#251 = MECHANICAL_CONTEXT ( 'NONE', #112, 'mechanical' ) ;
#252 = PLANE ( 'NONE',  #63 ) ;
#253 = AXIS2_PLACEMENT_3D ( 'NONE', #203, #65, #80 ) ;
#254 = LOCAL_TIME ( 13, 36, 21.00000000000000000, #157 ) ;
#255 = CARTESIAN_POINT ( 'NONE',  ( 0.0000000000000000000, 0.0000000000000000000, 0.0000000000000000000 ) ) ;
#256 = CARTESIAN_POINT ( 'NONE',  ( 1.885399922975292012E-13, -2.341876692568689577E-14, 54.00000000000000000 ) ) ;
#257 = PERSON_AND_ORGANIZATION_ROLE ( 'creator' ) ;
#258 = DATE_AND_TIME ( #49, #154 ) ;
#259 = PRODUCT_DEFINITION_FORMATION_WITH_SPECIFIED_SOURCE ( 'ANY', '', #62, .NOT_KNOWN. ) ;
#260 = CC_DESIGN_DATE_AND_TIME_ASSIGNMENT ( #91, #156, ( #239 ) ) ;
#261 = APPROVAL_STATUS ( 'not_yet_approved' ) ;
#262 = EDGE_CURVE ( 'NONE', #146, #146, #15, .T. ) ;
#263 = ORIENTED_EDGE ( 'NONE', *, *, #214, .T. ) ;
ENDSEC;
END-ISO-10303-21;
