ISO-10303-21;
HEADER;
FILE_DESCRIPTION (( 'STEP AP203' ),
    '1' );
FILE_NAME ('43551.step',
    '2021-10-13T11:36:20',
    ( '' ),
    ( '' ),
    'SwSTEP 2.0',
    'SolidWorks 2019',
    '' );
FILE_SCHEMA (( 'CONFIG_CONTROL_DESIGN' ));
ENDSEC;

DATA;
#1 = VERTEX_POINT ( 'NONE', #75 ) ;
#2 = CYLINDRICAL_SURFACE ( 'NONE', #126, 5.500000000000007105 ) ;
#3 = CONICAL_SURFACE ( 'NONE', #59, 5.999999999999989342, 1.221730476396026388 ) ;
#4 = ORIENTED_EDGE ( 'NONE', *, *, #104, .F. ) ;
#5 = COORDINATED_UNIVERSAL_TIME_OFFSET ( 1, 0, .AHEAD. ) ;
#6 = CARTESIAN_POINT ( 'NONE',  ( 3.526396152231564058E-13, -1.236893267138826416E-14, 100.9999999999999716 ) ) ;
#7 = CALENDAR_DATE ( 2021, 13, 10 ) ;
#8 = PLANE ( 'NONE',  #23 ) ;
#9 = CARTESIAN_POINT ( 'NONE',  ( 3.561310965619995770E-13, -1.249139735130300089E-14, 102.0000000000000000 ) ) ;
#10 = DATE_AND_TIME ( #90, #117 ) ;
#11 = DESIGN_CONTEXT ( 'detailed design', #171, 'design' ) ;
#12 = CC_DESIGN_PERSON_AND_ORGANIZATION_ASSIGNMENT ( #232, #34, ( #238 ) ) ;
#13 = DIRECTION ( 'NONE',  ( 0.0000000000000000000, -1.000000000000000000, 0.0000000000000000000 ) ) ;
#14 = DATE_AND_TIME ( #166, #17 ) ;
#15 = DIRECTION ( 'NONE',  ( 4.275831445896958607E-31, 1.000000000000000000, 1.224646799147353207E-16 ) ) ;
#16 = CIRCLE ( 'NONE', #170, 5.500000000000015099 ) ;
#17 = LOCAL_TIME ( 13, 36, 20.00000000000000000, #84 ) ;
#18 = EDGE_CURVE ( 'NONE', #223, #223, #30, .T. ) ;
#19 = MANIFOLD_SOLID_BREP ( 'Corps-Déplacer/Copier1[1]', #81 ) ;
#20 = CARTESIAN_POINT ( 'NONE',  ( 3.526396152231564058E-13, 5.999999999999989342, 100.9999999999999716 ) ) ;
#21 = DIRECTION ( 'NONE',  ( -3.491481338843133355E-15, 1.224646799147353207E-16, -1.000000000000000000 ) ) ;
#22 = DIRECTION ( 'NONE',  ( 0.0000000000000000000, 1.000000000000000000, 0.0000000000000000000 ) ) ;
#23 = AXIS2_PLACEMENT_3D ( 'NONE', #124, #26, #83 ) ;
#24 = FACE_BOUND ( 'NONE', #65, .T. ) ;
#25 = ADVANCED_FACE ( 'NONE', ( #175 ), #50, .T. ) ;
#26 = DIRECTION ( 'NONE',  ( 3.491481338843133355E-15, -1.224646799147353207E-16, 1.000000000000000000 ) ) ;
#27 = COORDINATED_UNIVERSAL_TIME_OFFSET ( 1, 0, .AHEAD. ) ;
#28 = CIRCLE ( 'NONE', #237, 5.500000000000007105 ) ;
#29 = EDGE_LOOP ( 'NONE', ( #144 ) ) ;
#30 = CIRCLE ( 'NONE', #198, 6.000000000000001776 ) ;
#31 = EDGE_LOOP ( 'NONE', ( #147 ) ) ;
#32 = DIRECTION ( 'NONE',  ( 0.0000000000000000000, 0.0000000000000000000, 1.000000000000000000 ) ) ;
#33 = ORIENTED_EDGE ( 'NONE', *, *, #187, .F. ) ;
#34 = PERSON_AND_ORGANIZATION_ROLE ( 'classification_officer' ) ;
#35 = AXIS2_PLACEMENT_3D ( 'NONE', #162, #32, #250 ) ;
#36 = FACE_OUTER_BOUND ( 'NONE', #235, .T. ) ;
#37 = FACE_OUTER_BOUND ( 'NONE', #103, .T. ) ;
#38 = FACE_OUTER_BOUND ( 'NONE', #260, .T. ) ;
#39 = VERTEX_POINT ( 'NONE', #77 ) ;
#40 = PERSON_AND_ORGANIZATION_ROLE ( 'creator' ) ;
#41 = CC_DESIGN_DATE_AND_TIME_ASSIGNMENT ( #225, #43, ( #238 ) ) ;
#42 = CC_DESIGN_APPROVAL ( #224, ( #165 ) ) ;
#43 = DATE_TIME_ROLE ( 'classification_date' ) ;
#44 = DIRECTION ( 'NONE',  ( -3.491481338843133355E-15, 4.327174794786742882E-16, -1.000000000000000000 ) ) ;
#45 = APPROVAL_DATE_TIME ( #228, #152 ) ;
#46 = EDGE_LOOP ( 'NONE', ( #205 ) ) ;
#47 = EDGE_CURVE ( 'NONE', #261, #261, #28, .T. ) ;
#48 = APPLICATION_PROTOCOL_DEFINITION ( 'international standard', 'config_control_design', 1994, #87 ) ;
#49 = PERSON_AND_ORGANIZATION_ROLE ( 'design_owner' ) ;
#50 = PLANE ( 'NONE',  #56 ) ;
#51 = UNCERTAINTY_MEASURE_WITH_UNIT (LENGTH_MEASURE( 1.000000000000000082E-05 ), #55, 'distance_accuracy_value', 'NONE');
#52 = DIRECTION ( 'NONE',  ( -3.491481338843133355E-15, 4.327174794786742882E-16, -1.000000000000000000 ) ) ;
#53 = CIRCLE ( 'NONE', #99, 5.633974596215578501 ) ;
#54 = APPROVAL ( #108, 'UNSPECIFIED' ) ;
#55 =( LENGTH_UNIT ( ) NAMED_UNIT ( * ) SI_UNIT ( .MILLI., .METRE. ) );
#56 = AXIS2_PLACEMENT_3D ( 'NONE', #227, #140, #69 ) ;
#57 = FACE_OUTER_BOUND ( 'NONE', #80, .T. ) ;
#58 = CARTESIAN_POINT ( 'NONE',  ( 0.0000000000000000000, 0.0000000000000000000, 0.0000000000000000000 ) ) ;
#59 = AXIS2_PLACEMENT_3D ( 'NONE', #89, #208, #106 ) ;
#60 = DIRECTION ( 'NONE',  ( 1.510825004591028030E-30, 1.000000000000000000, 4.327174794786742882E-16 ) ) ;
#61 = EDGE_CURVE ( 'NONE', #239, #239, #53, .T. ) ;
#62 = ORIENTED_EDGE ( 'NONE', *, *, #139, .F. ) ;
#63 = MECHANICAL_CONTEXT ( 'NONE', #87, 'mechanical' ) ;
#64 = DATE_AND_TIME ( #181, #177 ) ;
#65 = EDGE_LOOP ( 'NONE', ( #218 ) ) ;
#66 = PERSON_AND_ORGANIZATION ( #118, #109 ) ;
#67 = EDGE_LOOP ( 'NONE', ( #142 ) ) ;
#68 = APPROVAL_DATE_TIME ( #10, #224 ) ;
#69 = DIRECTION ( 'NONE',  ( -4.275831445896958607E-31, -1.000000000000000000, -1.224646799147353207E-16 ) ) ;
#70 = DATE_TIME_ROLE ( 'creation_date' ) ;
#71 = DIRECTION ( 'NONE',  ( -3.491481338843133355E-15, 4.327174794786742882E-16, -1.000000000000000000 ) ) ;
#72 = AXIS2_PLACEMENT_3D ( 'NONE', #188, #71, #130 ) ;
#73 = AXIS2_PLACEMENT_3D ( 'NONE', #135, #21, #245 ) ;
#74 = FACE_OUTER_BOUND ( 'NONE', #193, .T. ) ;
#75 = CARTESIAN_POINT ( 'NONE',  ( 3.561310965619995770E-13, 4.999999999999989342, 102.0000000000000000 ) ) ;
#76 = AXIS2_PLACEMENT_3D ( 'NONE', #174, #220, #153 ) ;
#77 = CARTESIAN_POINT ( 'NONE',  ( 1.396592535537253342E-13, -5.500000000000024869, 40.00000000000000000 ) ) ;
#78 = ADVANCED_FACE ( 'NONE', ( #163 ), #3, .T. ) ;
#79 = CARTESIAN_POINT ( 'NONE',  ( 6.989374044591548606E-15, -5.500000000000007105, 2.001836288464141411 ) ) ;
#80 = EDGE_LOOP ( 'NONE', ( #33 ) ) ;
#81 = CLOSED_SHELL ( 'NONE', ( #182, #257, #192, #216, #248, #155, #93 ) ) ;
#82 = EDGE_LOOP ( 'NONE', ( #164 ) ) ;
#83 = DIRECTION ( 'NONE',  ( -4.275831445896958607E-31, -1.000000000000000000, -1.224646799147353207E-16 ) ) ;
#84 = COORDINATED_UNIVERSAL_TIME_OFFSET ( 1, 0, .AHEAD. ) ;
#85 = DIRECTION ( 'NONE',  ( 3.491481338843133355E-15, -4.327174794786742882E-16, 1.000000000000000000 ) ) ;
#86 = PERSON_AND_ORGANIZATION ( #118, #109 ) ;
#87 = APPLICATION_CONTEXT ( 'configuration controlled 3d designs of mechanical parts and assemblies' ) ;
#88 = EDGE_CURVE ( 'NONE', #138, #138, #214, .T. ) ;
#89 = CARTESIAN_POINT ( 'NONE',  ( 7.624771685008940888E-15, -2.674409894274132817E-16, 2.183821405597239362 ) ) ;
#90 = CALENDAR_DATE ( 2021, 13, 10 ) ;
#91 = CARTESIAN_POINT ( 'NONE',  ( 0.0000000000000000000, 0.0000000000000000000, 0.0000000000000000000 ) ) ;
#92 = AXIS2_PLACEMENT_3D ( 'NONE', #91, #212, #15 ) ;
#93 = ADVANCED_FACE ( 'NONE', ( #200 ), #8, .F. ) ;
#94 = CC_DESIGN_PERSON_AND_ORGANIZATION_ASSIGNMENT ( #102, #49, ( #95 ) ) ;
#95 = PRODUCT ( '43551', '43551', '', ( #63 ) ) ;
#96 = ORIENTED_EDGE ( 'NONE', *, *, #211, .F. ) ;
#97 = DIRECTION ( 'NONE',  ( -3.491481338843133355E-15, 4.327174794786742882E-16, -1.000000000000000000 ) ) ;
#98 = DIRECTION ( 'NONE',  ( -3.491481338843133355E-15, 4.327174794786742882E-16, -1.000000000000000000 ) ) ;
#99 = AXIS2_PLACEMENT_3D ( 'NONE', #249, #44, #129 ) ;
#100 = DIRECTION ( 'NONE',  ( 0.0000000000000000000, 1.000000000000000000, 0.0000000000000000000 ) ) ;
#101 = CARTESIAN_POINT ( 'NONE',  ( 1.890077621000947419E-13, -2.342471704143696603E-14, 54.13397459621552343 ) ) ;
#102 = PERSON_AND_ORGANIZATION ( #118, #109 ) ;
#103 = EDGE_LOOP ( 'NONE', ( #62 ) ) ;
#104 = EDGE_CURVE ( 'NONE', #1, #1, #120, .T. ) ;
#105 = APPROVAL_ROLE ( '' ) ;
#106 = DIRECTION ( 'NONE',  ( -5.135813185032638283E-31, -1.000000000000000000, -1.445602896647341875E-16 ) ) ;
#107 = EDGE_LOOP ( 'NONE', ( #246 ) ) ;
#108 = APPROVAL_STATUS ( 'not_yet_approved' ) ;
#109 = ORGANIZATION ( 'UNSPECIFIED', 'UNSPECIFIED', '' ) ;
#110 = DIRECTION ( 'NONE',  ( -3.491481338843133355E-15, 1.224646799147353207E-16, -1.000000000000000000 ) ) ;
#111 = FACE_OUTER_BOUND ( 'NONE', #29, .T. ) ;
#112 = CONICAL_SURFACE ( 'NONE', #262, 5.000000000000001776, 0.7853981633974410625 ) ;
#113 = VERTEX_POINT ( 'NONE', #263 ) ;
#114 = CARTESIAN_POINT ( 'NONE',  ( 1.396592535537253342E-13, -1.730869917914697153E-14, 40.00000000000000000 ) ) ;
#115 = PRODUCT_DEFINITION_SHAPE ( 'NONE', 'NONE',  #151 ) ;
#116 = EDGE_LOOP ( 'NONE', ( #4 ) ) ;
#117 = LOCAL_TIME ( 13, 36, 20.00000000000000000, #253 ) ;
#118 = PERSON ( 'UNSPECIFIED', 'UNSPECIFIED', 'UNSPECIFIED', ('UNSPECIFIED'), ('UNSPECIFIED'), ('UNSPECIFIED') ) ;
#119 = CYLINDRICAL_SURFACE ( 'NONE', #158, 5.500000000000007105 ) ;
#120 = CIRCLE ( 'NONE', #176, 5.000000000000001776 ) ;
#121 = CLOSED_SHELL ( 'NONE', ( #78, #199, #25 ) ) ;
#122 = FACE_OUTER_BOUND ( 'NONE', #107, .T. ) ;
#123 = PERSON_AND_ORGANIZATION_ROLE ( 'design_supplier' ) ;
#124 = CARTESIAN_POINT ( 'NONE',  ( 1.396592535537253342E-13, 4.499279347985561328E-32, 40.00000000000000000 ) ) ;
#125 = PERSON_AND_ORGANIZATION ( #118, #109 ) ;
#126 = AXIS2_PLACEMENT_3D ( 'NONE', #58, #98, #222 ) ;
#127 = CARTESIAN_POINT ( 'NONE',  ( 6.989374044591551761E-15, -2.451542403084629309E-16, 2.001836288464142299 ) ) ;
#128 = DIRECTION ( 'NONE',  ( -3.491481338843133355E-15, 1.224646799147353207E-16, -1.000000000000000000 ) ) ;
#129 = DIRECTION ( 'NONE',  ( 0.0000000000000000000, 1.000000000000000000, 0.0000000000000000000 ) ) ;
#130 = DIRECTION ( 'NONE',  ( 1.510825004591027855E-30, 1.000000000000000000, 4.327174794786742882E-16 ) ) ;
#131 = CC_DESIGN_APPROVAL ( #54, ( #151 ) ) ;
#132 = CC_DESIGN_DATE_AND_TIME_ASSIGNMENT ( #14, #70, ( #151 ) ) ;
#133 = CARTESIAN_POINT ( 'NONE',  ( 1.867942516281076408E-13, 5.633974596215555408, 53.50000000000000000 ) ) ;
#134 =( NAMED_UNIT ( * ) PLANE_ANGLE_UNIT ( ) SI_UNIT ( $, .RADIAN. ) );
#135 = CARTESIAN_POINT ( 'NONE',  ( 3.561310965619995770E-13, 3.749399456654627598E-32, 102.0000000000000000 ) ) ;
#136 = CC_DESIGN_SECURITY_CLASSIFICATION ( #238, ( #165 ) ) ;
#137 = CARTESIAN_POINT ( 'NONE',  ( 1.850485109586860552E-13, -2.293402641236973727E-14, 53.00000000000000000 ) ) ;
#138 = VERTEX_POINT ( 'NONE', #79 ) ;
#139 = EDGE_CURVE ( 'NONE', #113, #113, #209, .T. ) ;
#140 = DIRECTION ( 'NONE',  ( 3.491481338843133355E-15, -1.224646799147353207E-16, 1.000000000000000000 ) ) ;
#141 = PERSON_AND_ORGANIZATION_ROLE ( 'creator' ) ;
#142 = ORIENTED_EDGE ( 'NONE', *, *, #18, .T. ) ;
#143 = PERSON_AND_ORGANIZATION ( #118, #109 ) ;
#144 = ORIENTED_EDGE ( 'NONE', *, *, #61, .T. ) ;
#145 = APPROVAL_ROLE ( '' ) ;
#146 = APPROVAL_STATUS ( 'not_yet_approved' ) ;
#147 = ORIENTED_EDGE ( 'NONE', *, *, #139, .T. ) ;
#148 = PERSON_AND_ORGANIZATION ( #118, #109 ) ;
#149 = AXIS2_PLACEMENT_3D ( 'NONE', #127, #128, #251 ) ;
#150 = CYLINDRICAL_SURFACE ( 'NONE', #92, 5.999999999999998224 ) ;
#151 = PRODUCT_DEFINITION ( 'UNKNOWN', '', #165, #11 ) ;
#152 = APPROVAL ( #146, 'UNSPECIFIED' ) ;
#153 = DIRECTION ( 'NONE',  ( 0.0000000000000000000, -1.000000000000000000, 0.0000000000000000000 ) ) ;
#154 = CARTESIAN_POINT ( 'NONE',  ( 1.850485109586860552E-13, 5.499999999999992895, 53.00000000000000000 ) ) ;
#155 = ADVANCED_FACE ( 'NONE', ( #36, #111 ), #255, .F. ) ;
#156 = FACE_OUTER_BOUND ( 'NONE', #116, .T. ) ;
#157 = DIRECTION ( 'NONE',  ( -3.491481338843133355E-15, 1.224646799147353207E-16, -1.000000000000000000 ) ) ;
#158 = AXIS2_PLACEMENT_3D ( 'NONE', #242, #52, #60 ) ;
#159 = ORIENTED_EDGE ( 'NONE', *, *, #88, .F. ) ;
#160 = PERSON_AND_ORGANIZATION ( #118, #109 ) ;
#161 = CARTESIAN_POINT ( 'NONE',  ( 1.396592535537253342E-13, -1.730869917914697153E-14, 40.00000000000000000 ) ) ;
#162 = CARTESIAN_POINT ( 'NONE',  ( 0.0000000000000000000, 0.0000000000000000000, 0.0000000000000000000 ) ) ;
#163 = FACE_OUTER_BOUND ( 'NONE', #46, .T. ) ;
#164 = ORIENTED_EDGE ( 'NONE', *, *, #47, .F. ) ;
#165 = PRODUCT_DEFINITION_FORMATION_WITH_SPECIFIED_SOURCE ( 'ANY', '', #95, .NOT_KNOWN. ) ;
#166 = CALENDAR_DATE ( 2021, 13, 10 ) ;
#167 = DIRECTION ( 'NONE',  ( -3.491481338843133355E-15, 1.224646799147353207E-16, -1.000000000000000000 ) ) ;
#168 = APPLICATION_PROTOCOL_DEFINITION ( 'international standard', 'config_control_design', 1994, #171 ) ;
#169 = FACE_OUTER_BOUND ( 'NONE', #31, .T. ) ;
#170 = AXIS2_PLACEMENT_3D ( 'NONE', #137, #97, #22 ) ;
#171 = APPLICATION_CONTEXT ( 'configuration controlled 3d designs of mechanical parts and assemblies' ) ;
#172 = FACE_BOUND ( 'NONE', #252, .T. ) ;
#173 = CARTESIAN_POINT ( 'NONE',  ( 3.561310965619995770E-13, -1.249139735130300089E-14, 102.0000000000000000 ) ) ;
#174 = CARTESIAN_POINT ( 'NONE',  ( 1.920314736363723219E-13, -2.379946137132708270E-14, 54.99999999999999289 ) ) ;
#175 = FACE_OUTER_BOUND ( 'NONE', #82, .T. ) ;
#176 = AXIS2_PLACEMENT_3D ( 'NONE', #9, #207, #186 ) ;
#177 = LOCAL_TIME ( 13, 36, 20.00000000000000000, #5 ) ;
#178 = EDGE_LOOP ( 'NONE', ( #230 ) ) ;
#179 = CALENDAR_DATE ( 2021, 13, 10 ) ;
#180 = EDGE_LOOP ( 'NONE', ( #159 ) ) ;
#181 = CALENDAR_DATE ( 2021, 13, 10 ) ;
#182 = ADVANCED_FACE ( 'NONE', ( #169, #236 ), #150, .T. ) ;
#183 = DIRECTION ( 'NONE',  ( 0.0000000000000000000, -1.000000000000000000, 0.0000000000000000000 ) ) ;
#184 = APPROVAL_STATUS ( 'not_yet_approved' ) ;
#185 = MANIFOLD_SOLID_BREP ( 'Corps-Déplacer/Copier1[2]', #121 ) ;
#186 = DIRECTION ( 'NONE',  ( 0.0000000000000000000, 1.000000000000000000, 0.0000000000000000000 ) ) ;
#187 = EDGE_CURVE ( 'NONE', #39, #39, #240, .T. ) ;
#188 = CARTESIAN_POINT ( 'NONE',  ( 1.850485109586860552E-13, -2.255140518769849223E-14, 53.00000000000000000 ) ) ;
#189 = APPROVAL_PERSON_ORGANIZATION ( #66, #224, #105 ) ;
#190 = PRODUCT_RELATED_PRODUCT_CATEGORY ( 'detail', '', ( #95 ) ) ;
#191 = CONICAL_SURFACE ( 'NONE', #76, 6.500000000000018652, 0.5235987755983012581 ) ;
#192 = ADVANCED_FACE ( 'NONE', ( #156 ), #244, .F. ) ;
#193 = EDGE_LOOP ( 'NONE', ( #202 ) ) ;
#194 = DIRECTION ( 'NONE',  ( -3.491481338843133355E-15, 1.224646799147353207E-16, -1.000000000000000000 ) ) ;
#195 = ORIENTED_EDGE ( 'NONE', *, *, #47, .T. ) ;
#196 =( NAMED_UNIT ( * ) SI_UNIT ( $, .STERADIAN. ) SOLID_ANGLE_UNIT ( ) );
#197 = DIRECTION ( 'NONE',  ( 0.0000000000000000000, -1.000000000000000000, 0.0000000000000000000 ) ) ;
#198 = AXIS2_PLACEMENT_3D ( 'NONE', #6, #167, #233 ) ;
#199 = ADVANCED_FACE ( 'NONE', ( #38, #241 ), #119, .T. ) ;
#200 = FACE_OUTER_BOUND ( 'NONE', #178, .T. ) ;
#201 = SECURITY_CLASSIFICATION_LEVEL ( 'unclassified' ) ;
#202 = ORIENTED_EDGE ( 'NONE', *, *, #211, .T. ) ;
#203 = APPROVAL_ROLE ( '' ) ;
#204 = AXIS2_PLACEMENT_3D ( 'NONE', #101, #85, #13 ) ;
#205 = ORIENTED_EDGE ( 'NONE', *, *, #88, .T. ) ;
#206 = SHAPE_DEFINITION_REPRESENTATION ( #115, #231 ) ;
#207 = DIRECTION ( 'NONE',  ( -3.491481338843133355E-15, 1.224646799147353207E-16, -1.000000000000000000 ) ) ;
#208 = DIRECTION ( 'NONE',  ( 3.491481338843133355E-15, -1.224646799147353207E-16, 1.000000000000000000 ) ) ;
#209 = CIRCLE ( 'NONE', #204, 5.999999999999998224 ) ;
#210 = APPROVAL_PERSON_ORGANIZATION ( #143, #54, #145 ) ;
#211 = EDGE_CURVE ( 'NONE', #219, #219, #16, .T. ) ;
#212 = DIRECTION ( 'NONE',  ( -3.491481338843133355E-15, 1.224646799147353207E-16, -1.000000000000000000 ) ) ;
#213 = CC_DESIGN_PERSON_AND_ORGANIZATION_ASSIGNMENT ( #148, #40, ( #165 ) ) ;
#214 = CIRCLE ( 'NONE', #149, 5.500000000000007105 ) ;
#215 = CC_DESIGN_APPROVAL ( #152, ( #238 ) ) ;
#216 = ADVANCED_FACE ( 'NONE', ( #74, #57 ), #2, .T. ) ;
#217 =( GEOMETRIC_REPRESENTATION_CONTEXT ( 3 ) GLOBAL_UNCERTAINTY_ASSIGNED_CONTEXT ( ( #51 ) ) GLOBAL_UNIT_ASSIGNED_CONTEXT ( ( #55, #134, #196 ) ) REPRESENTATION_CONTEXT ( 'NONE', 'WORKASPACE' ) );
#218 = ORIENTED_EDGE ( 'NONE', *, *, #104, .T. ) ;
#219 = VERTEX_POINT ( 'NONE', #154 ) ;
#220 = DIRECTION ( 'NONE',  ( 3.491481338843133355E-15, -4.327174794786742882E-16, 1.000000000000000000 ) ) ;
#221 = LOCAL_TIME ( 13, 36, 20.00000000000000000, #27 ) ;
#222 = DIRECTION ( 'NONE',  ( 1.510825004591028030E-30, 1.000000000000000000, 4.327174794786742882E-16 ) ) ;
#223 = VERTEX_POINT ( 'NONE', #20 ) ;
#224 = APPROVAL ( #184, 'UNSPECIFIED' ) ;
#225 = DATE_AND_TIME ( #179, #221 ) ;
#226 = CC_DESIGN_PERSON_AND_ORGANIZATION_ASSIGNMENT ( #160, #141, ( #151 ) ) ;
#227 = CARTESIAN_POINT ( 'NONE',  ( 1.396592535537253342E-13, 4.499279347985561328E-32, 40.00000000000000000 ) ) ;
#228 = DATE_AND_TIME ( #7, #243 ) ;
#229 = AXIS2_PLACEMENT_3D ( 'NONE', #114, #194, #197 ) ;
#230 = ORIENTED_EDGE ( 'NONE', *, *, #187, .T. ) ;
#231 = ADVANCED_BREP_SHAPE_REPRESENTATION ( '43551', ( #19, #185, #35 ), #217 ) ;
#232 = PERSON_AND_ORGANIZATION ( #118, #109 ) ;
#233 = DIRECTION ( 'NONE',  ( 0.0000000000000000000, 1.000000000000000000, 0.0000000000000000000 ) ) ;
#234 = COORDINATED_UNIVERSAL_TIME_OFFSET ( 1, 0, .AHEAD. ) ;
#235 = EDGE_LOOP ( 'NONE', ( #96 ) ) ;
#236 = FACE_OUTER_BOUND ( 'NONE', #67, .T. ) ;
#237 = AXIS2_PLACEMENT_3D ( 'NONE', #161, #110, #183 ) ;
#238 = SECURITY_CLASSIFICATION ( '', '', #201 ) ;
#239 = VERTEX_POINT ( 'NONE', #133 ) ;
#240 = CIRCLE ( 'NONE', #229, 5.500000000000007105 ) ;
#241 = FACE_OUTER_BOUND ( 'NONE', #180, .T. ) ;
#242 = CARTESIAN_POINT ( 'NONE',  ( 0.0000000000000000000, 0.0000000000000000000, 0.0000000000000000000 ) ) ;
#243 = LOCAL_TIME ( 13, 36, 20.00000000000000000, #234 ) ;
#244 = PLANE ( 'NONE',  #73 ) ;
#245 = DIRECTION ( 'NONE',  ( 4.275831445896958607E-31, 1.000000000000000000, 1.224646799147353207E-16 ) ) ;
#246 = ORIENTED_EDGE ( 'NONE', *, *, #18, .F. ) ;
#247 = APPROVAL_DATE_TIME ( #64, #54 ) ;
#248 = ADVANCED_FACE ( 'NONE', ( #172, #37 ), #191, .T. ) ;
#249 = CARTESIAN_POINT ( 'NONE',  ( 1.867942516281076408E-13, -2.315038515210907284E-14, 53.50000000000000000 ) ) ;
#250 = DIRECTION ( 'NONE',  ( 1.000000000000000000, 0.0000000000000000000, 0.0000000000000000000 ) ) ;
#251 = DIRECTION ( 'NONE',  ( -5.602705292762860770E-31, -1.000000000000000000, -1.577021341797095342E-16 ) ) ;
#252 = EDGE_LOOP ( 'NONE', ( #254 ) ) ;
#253 = COORDINATED_UNIVERSAL_TIME_OFFSET ( 1, 0, .AHEAD. ) ;
#254 = ORIENTED_EDGE ( 'NONE', *, *, #61, .F. ) ;
#255 = TOROIDAL_SURFACE ( 'NONE', #72, 6.500000000000015987, 1.000000000000000000 ) ;
#256 = APPROVAL_PERSON_ORGANIZATION ( #125, #152, #203 ) ;
#257 = ADVANCED_FACE ( 'NONE', ( #122, #24 ), #112, .T. ) ;
#258 = CARTESIAN_POINT ( 'NONE',  ( 1.396592535537253342E-13, -5.500000000000024869, 40.00000000000000000 ) ) ;
#259 = CC_DESIGN_PERSON_AND_ORGANIZATION_ASSIGNMENT ( #86, #123, ( #165 ) ) ;
#260 = EDGE_LOOP ( 'NONE', ( #195 ) ) ;
#261 = VERTEX_POINT ( 'NONE', #258 ) ;
#262 = AXIS2_PLACEMENT_3D ( 'NONE', #173, #157, #100 ) ;
#263 = CARTESIAN_POINT ( 'NONE',  ( 1.890077621000947419E-13, -6.000000000000022204, 54.13397459621552343 ) ) ;
ENDSEC;
END-ISO-10303-21;
