ISO-10303-21;
HEADER;
FILE_DESCRIPTION (( 'STEP AP203' ),
    '1' );
FILE_NAME ('43550.step',
    '2021-10-13T11:36:19',
    ( '' ),
    ( '' ),
    'SwSTEP 2.0',
    'SolidWorks 2019',
    '' );
FILE_SCHEMA (( 'CONFIG_CONTROL_DESIGN' ));
ENDSEC;

DATA;
#1 = CIRCLE ( 'NONE', #165, 5.250000000000016875 ) ;
#2 = CARTESIAN_POINT ( 'NONE',  ( 0.0000000000000000000, 0.0000000000000000000, 0.0000000000000000000 ) ) ;
#3 = CARTESIAN_POINT ( 'NONE',  ( 3.561310965619995770E-13, -1.249139735130300089E-14, 102.0000000000000000 ) ) ;
#4 = DIRECTION ( 'NONE',  ( 0.0000000000000000000, -1.000000000000000000, 0.0000000000000000000 ) ) ;
#5 = DIRECTION ( 'NONE',  ( 0.0000000000000000000, 1.000000000000000000, 0.0000000000000000000 ) ) ;
#6 = AXIS2_PLACEMENT_3D ( 'NONE', #152, #55, #14 ) ;
#7 = DIRECTION ( 'NONE',  ( 0.0000000000000000000, 1.000000000000000000, 0.0000000000000000000 ) ) ;
#8 = EDGE_LOOP ( 'NONE', ( #163 ) ) ;
#9 = ORIENTED_EDGE ( 'NONE', *, *, #205, .T. ) ;
#10 = VERTEX_POINT ( 'NONE', #69 ) ;
#11 = CC_DESIGN_DATE_AND_TIME_ASSIGNMENT ( #239, #219, ( #39 ) ) ;
#12 = APPROVAL_PERSON_ORGANIZATION ( #30, #18, #50 ) ;
#13 = DIRECTION ( 'NONE',  ( 1.510825004591027855E-30, 1.000000000000000000, 4.327174794786742882E-16 ) ) ;
#14 = DIRECTION ( 'NONE',  ( 1.000000000000000000, 0.0000000000000000000, 0.0000000000000000000 ) ) ;
#15 = MANIFOLD_SOLID_BREP ( 'Corps-Déplacer/Copier1[2]', #32 ) ;
#16 = AXIS2_PLACEMENT_3D ( 'NONE', #143, #164, #45 ) ;
#17 = APPLICATION_CONTEXT ( 'configuration controlled 3d designs of mechanical parts and assemblies' ) ;
#18 = APPROVAL ( #175, 'UNSPECIFIED' ) ;
#19 = APPROVAL_DATE_TIME ( #38, #89 ) ;
#20 = ADVANCED_BREP_SHAPE_REPRESENTATION ( '43550', ( #186, #15, #6 ), #94 ) ;
#21 = DIRECTION ( 'NONE',  ( -3.491481338843133355E-15, 1.224646799147353207E-16, -1.000000000000000000 ) ) ;
#22 = CARTESIAN_POINT ( 'NONE',  ( 1.850485109586860552E-13, -2.293402641236973727E-14, 53.00000000000000000 ) ) ;
#23 = FACE_OUTER_BOUND ( 'NONE', #191, .T. ) ;
#24 = ADVANCED_FACE ( 'NONE', ( #110, #211 ), #95, .T. ) ;
#25 = DIRECTION ( 'NONE',  ( 0.0000000000000000000, -1.000000000000000000, 0.0000000000000000000 ) ) ;
#26 = CIRCLE ( 'NONE', #76, 5.000000000000001776 ) ;
#27 = CARTESIAN_POINT ( 'NONE',  ( 3.526396152231564058E-13, 5.999999999999989342, 100.9999999999999716 ) ) ;
#28 = FACE_BOUND ( 'NONE', #150, .T. ) ;
#29 = FACE_OUTER_BOUND ( 'NONE', #8, .T. ) ;
#30 = PERSON_AND_ORGANIZATION ( #136, #122 ) ;
#31 = EDGE_LOOP ( 'NONE', ( #147 ) ) ;
#32 = CLOSED_SHELL ( 'NONE', ( #40, #24, #243 ) ) ;
#33 = CARTESIAN_POINT ( 'NONE',  ( 6.671675224382843787E-15, -5.250000000000007994, 1.910843729897589771 ) ) ;
#34 = CARTESIAN_POINT ( 'NONE',  ( 1.850485109586860552E-13, 5.249999999999994671, 53.00000000000000000 ) ) ;
#35 = PRODUCT ( '43550', '43550', '', ( #216 ) ) ;
#36 = ADVANCED_FACE ( 'NONE', ( #28, #29 ), #37, .T. ) ;
#37 = CONICAL_SURFACE ( 'NONE', #78, 6.500000000000019540, 0.5235987755983000369 ) ;
#38 = DATE_AND_TIME ( #263, #119 ) ;
#39 = SECURITY_CLASSIFICATION ( '', '', #115 ) ;
#40 = ADVANCED_FACE ( 'NONE', ( #53 ), #259, .T. ) ;
#41 = DIRECTION ( 'NONE',  ( 3.491481338843133355E-15, -4.327174794786742882E-16, 1.000000000000000000 ) ) ;
#42 = FACE_OUTER_BOUND ( 'NONE', #107, .T. ) ;
#43 = DESIGN_CONTEXT ( 'detailed design', #17, 'design' ) ;
#44 = LOCAL_TIME ( 13, 36, 19.00000000000000000, #258 ) ;
#45 = DIRECTION ( 'NONE',  ( 4.275831445896958607E-31, 1.000000000000000000, 1.224646799147353207E-16 ) ) ;
#46 = DIRECTION ( 'NONE',  ( -3.491481338843133355E-15, 1.224646799147353207E-16, -1.000000000000000000 ) ) ;
#47 = ADVANCED_FACE ( 'NONE', ( #235 ), #195, .F. ) ;
#48 = CYLINDRICAL_SURFACE ( 'NONE', #148, 5.250000000000007994 ) ;
#49 = EDGE_LOOP ( 'NONE', ( #188 ) ) ;
#50 = APPROVAL_ROLE ( '' ) ;
#51 = EDGE_LOOP ( 'NONE', ( #82 ) ) ;
#52 = CALENDAR_DATE ( 2021, 13, 10 ) ;
#53 = FACE_OUTER_BOUND ( 'NONE', #206, .T. ) ;
#54 = EDGE_LOOP ( 'NONE', ( #93 ) ) ;
#55 = DIRECTION ( 'NONE',  ( 0.0000000000000000000, 0.0000000000000000000, 1.000000000000000000 ) ) ;
#56 = ADVANCED_FACE ( 'NONE', ( #63 ), #125, .F. ) ;
#57 = AXIS2_PLACEMENT_3D ( 'NONE', #182, #123, #180 ) ;
#58 = CC_DESIGN_PERSON_AND_ORGANIZATION_ASSIGNMENT ( #170, #254, ( #217 ) ) ;
#59 = SHAPE_DEFINITION_REPRESENTATION ( #87, #20 ) ;
#60 = COORDINATED_UNIVERSAL_TIME_OFFSET ( 1, 0, .AHEAD. ) ;
#61 = FACE_OUTER_BOUND ( 'NONE', #91, .T. ) ;
#62 = DIRECTION ( 'NONE',  ( 0.0000000000000000000, 1.000000000000000000, 0.0000000000000000000 ) ) ;
#63 = FACE_OUTER_BOUND ( 'NONE', #189, .T. ) ;
#64 = FACE_OUTER_BOUND ( 'NONE', #54, .T. ) ;
#65 = CARTESIAN_POINT ( 'NONE',  ( 1.850485109586860552E-13, -2.255140518769849223E-14, 53.00000000000000000 ) ) ;
#66 = DIRECTION ( 'NONE',  ( 3.491481338843133355E-15, -1.224646799147353207E-16, 1.000000000000000000 ) ) ;
#67 = DATE_TIME_ROLE ( 'creation_date' ) ;
#68 = DIRECTION ( 'NONE',  ( 3.491481338843133355E-15, -4.327174794786742882E-16, 1.000000000000000000 ) ) ;
#69 = CARTESIAN_POINT ( 'NONE',  ( 1.396592535537253342E-13, -5.250000000000025757, 40.00000000000000000 ) ) ;
#70 = CIRCLE ( 'NONE', #222, 5.250000000000007994 ) ;
#71 = ORIENTED_EDGE ( 'NONE', *, *, #176, .T. ) ;
#72 = DIRECTION ( 'NONE',  ( -3.491481338843133355E-15, 4.327174794786742882E-16, -1.000000000000000000 ) ) ;
#73 = APPROVAL_DATE_TIME ( #212, #83 ) ;
#74 = CC_DESIGN_PERSON_AND_ORGANIZATION_ASSIGNMENT ( #240, #179, ( #39 ) ) ;
#75 = CALENDAR_DATE ( 2021, 13, 10 ) ;
#76 = AXIS2_PLACEMENT_3D ( 'NONE', #3, #166, #62 ) ;
#77 = CALENDAR_DATE ( 2021, 13, 10 ) ;
#78 = AXIS2_PLACEMENT_3D ( 'NONE', #113, #68, #108 ) ;
#79 = ADVANCED_FACE ( 'NONE', ( #61, #226 ), #137, .T. ) ;
#80 = AXIS2_PLACEMENT_3D ( 'NONE', #129, #173, #88 ) ;
#81 = DIRECTION ( 'NONE',  ( -3.491481338843133355E-15, 4.327174794786742882E-16, -1.000000000000000000 ) ) ;
#82 = ORIENTED_EDGE ( 'NONE', *, *, #199, .T. ) ;
#83 = APPROVAL ( #174, 'UNSPECIFIED' ) ;
#84 = DIRECTION ( 'NONE',  ( -3.491481338843133355E-15, 4.327174794786742882E-16, -1.000000000000000000 ) ) ;
#85 = PRODUCT_DEFINITION_FORMATION_WITH_SPECIFIED_SOURCE ( 'ANY', '', #35, .NOT_KNOWN. ) ;
#86 = DIRECTION ( 'NONE',  ( 0.0000000000000000000, 1.000000000000000000, 0.0000000000000000000 ) ) ;
#87 = PRODUCT_DEFINITION_SHAPE ( 'NONE', 'NONE',  #217 ) ;
#88 = DIRECTION ( 'NONE',  ( -5.135813185032638283E-31, -1.000000000000000000, -1.445602896647341875E-16 ) ) ;
#89 = APPROVAL ( #200, 'UNSPECIFIED' ) ;
#90 = DIRECTION ( 'NONE',  ( -4.402125587170817926E-31, -1.000000000000000000, -1.239088197126288845E-16 ) ) ;
#91 = EDGE_LOOP ( 'NONE', ( #209 ) ) ;
#92 = DATE_AND_TIME ( #75, #44 ) ;
#93 = ORIENTED_EDGE ( 'NONE', *, *, #220, .T. ) ;
#94 =( GEOMETRIC_REPRESENTATION_CONTEXT ( 3 ) GLOBAL_UNCERTAINTY_ASSIGNED_CONTEXT ( ( #124 ) ) GLOBAL_UNIT_ASSIGNED_CONTEXT ( ( #172, #133, #128 ) ) REPRESENTATION_CONTEXT ( 'NONE', 'WORKASPACE' ) );
#95 = CYLINDRICAL_SURFACE ( 'NONE', #155, 5.250000000000007994 ) ;
#96 = COORDINATED_UNIVERSAL_TIME_OFFSET ( 1, 0, .AHEAD. ) ;
#97 = PERSON_AND_ORGANIZATION_ROLE ( 'design_owner' ) ;
#98 = COORDINATED_UNIVERSAL_TIME_OFFSET ( 1, 0, .AHEAD. ) ;
#99 = CC_DESIGN_PERSON_AND_ORGANIZATION_ASSIGNMENT ( #201, #159, ( #85 ) ) ;
#100 = CYLINDRICAL_SURFACE ( 'NONE', #16, 5.999999999999998224 ) ;
#101 = FACE_OUTER_BOUND ( 'NONE', #31, .T. ) ;
#102 = EDGE_CURVE ( 'NONE', #207, #207, #181, .T. ) ;
#103 = DIRECTION ( 'NONE',  ( -4.275831445896958607E-31, -1.000000000000000000, -1.224646799147353207E-16 ) ) ;
#104 = CARTESIAN_POINT ( 'NONE',  ( 1.867942516281076408E-13, 5.383974596215556296, 53.50000000000000000 ) ) ;
#105 = CIRCLE ( 'NONE', #215, 5.999999999999998224 ) ;
#106 = DIRECTION ( 'NONE',  ( 0.0000000000000000000, 1.000000000000000000, 0.0000000000000000000 ) ) ;
#107 = EDGE_LOOP ( 'NONE', ( #230 ) ) ;
#108 = DIRECTION ( 'NONE',  ( 0.0000000000000000000, -1.000000000000000000, 0.0000000000000000000 ) ) ;
#109 = VERTEX_POINT ( 'NONE', #190 ) ;
#110 = FACE_OUTER_BOUND ( 'NONE', #169, .T. ) ;
#111 = AXIS2_PLACEMENT_3D ( 'NONE', #245, #202, #7 ) ;
#112 = CIRCLE ( 'NONE', #261, 6.000000000000001776 ) ;
#113 = CARTESIAN_POINT ( 'NONE',  ( 1.935433294045110362E-13, -2.398683353627213630E-14, 55.43301270189221697 ) ) ;
#114 = EDGE_CURVE ( 'NONE', #185, #185, #26, .T. ) ;
#115 = SECURITY_CLASSIFICATION_LEVEL ( 'unclassified' ) ;
#116 = CC_DESIGN_APPROVAL ( #89, ( #39 ) ) ;
#117 = EDGE_CURVE ( 'NONE', #168, #168, #105, .T. ) ;
#118 = CC_DESIGN_APPROVAL ( #83, ( #85 ) ) ;
#119 = LOCAL_TIME ( 13, 36, 19.00000000000000000, #98 ) ;
#120 = DIRECTION ( 'NONE',  ( -3.491481338843133355E-15, 1.224646799147353207E-16, -1.000000000000000000 ) ) ;
#121 = DIRECTION ( 'NONE',  ( 1.510825004591027855E-30, 1.000000000000000000, 4.327174794786742882E-16 ) ) ;
#122 = ORGANIZATION ( 'UNSPECIFIED', 'UNSPECIFIED', '' ) ;
#123 = DIRECTION ( 'NONE',  ( 3.491481338843133355E-15, -1.224646799147353207E-16, 1.000000000000000000 ) ) ;
#124 = UNCERTAINTY_MEASURE_WITH_UNIT (LENGTH_MEASURE( 1.000000000000000082E-05 ), #172, 'distance_accuracy_value', 'NONE');
#125 = PLANE ( 'NONE',  #246 ) ;
#126 = FACE_OUTER_BOUND ( 'NONE', #214, .T. ) ;
#127 = CARTESIAN_POINT ( 'NONE',  ( 0.0000000000000000000, 0.0000000000000000000, 0.0000000000000000000 ) ) ;
#128 =( NAMED_UNIT ( * ) SI_UNIT ( $, .STERADIAN. ) SOLID_ANGLE_UNIT ( ) );
#129 = CARTESIAN_POINT ( 'NONE',  ( 7.624771685008940888E-15, -2.674409894274132817E-16, 2.183821405597239362 ) ) ;
#130 = APPROVAL_ROLE ( '' ) ;
#131 = ORIENTED_EDGE ( 'NONE', *, *, #102, .F. ) ;
#132 = TOROIDAL_SURFACE ( 'NONE', #227, 6.250000000000017764, 1.000000000000000000 ) ;
#133 =( NAMED_UNIT ( * ) PLANE_ANGLE_UNIT ( ) SI_UNIT ( $, .RADIAN. ) );
#134 = ADVANCED_FACE ( 'NONE', ( #140, #225 ), #132, .F. ) ;
#135 = CIRCLE ( 'NONE', #223, 5.250000000000007994 ) ;
#136 = PERSON ( 'UNSPECIFIED', 'UNSPECIFIED', 'UNSPECIFIED', ('UNSPECIFIED'), ('UNSPECIFIED'), ('UNSPECIFIED') ) ;
#137 = CONICAL_SURFACE ( 'NONE', #111, 5.000000000000001776, 0.7853981633974410625 ) ;
#138 = CARTESIAN_POINT ( 'NONE',  ( 1.867942516281076408E-13, -2.315038515210907284E-14, 53.50000000000000000 ) ) ;
#139 = CARTESIAN_POINT ( 'NONE',  ( 6.671675224382846154E-15, -2.340108657489874104E-16, 1.910843729897590437 ) ) ;
#140 = FACE_OUTER_BOUND ( 'NONE', #213, .T. ) ;
#141 = LOCAL_TIME ( 13, 36, 19.00000000000000000, #249 ) ;
#142 = CARTESIAN_POINT ( 'NONE',  ( 1.396592535537253342E-13, -1.730869917914697153E-14, 40.00000000000000000 ) ) ;
#143 = CARTESIAN_POINT ( 'NONE',  ( 0.0000000000000000000, 0.0000000000000000000, 0.0000000000000000000 ) ) ;
#144 = CC_DESIGN_DATE_AND_TIME_ASSIGNMENT ( #146, #67, ( #217 ) ) ;
#145 = ORIENTED_EDGE ( 'NONE', *, *, #102, .T. ) ;
#146 = DATE_AND_TIME ( #52, #141 ) ;
#147 = ORIENTED_EDGE ( 'NONE', *, *, #117, .T. ) ;
#148 = AXIS2_PLACEMENT_3D ( 'NONE', #2, #242, #121 ) ;
#149 = VERTEX_POINT ( 'NONE', #34 ) ;
#150 = EDGE_LOOP ( 'NONE', ( #131 ) ) ;
#151 = CC_DESIGN_PERSON_AND_ORGANIZATION_ASSIGNMENT ( #210, #97, ( #35 ) ) ;
#152 = CARTESIAN_POINT ( 'NONE',  ( 0.0000000000000000000, 0.0000000000000000000, 0.0000000000000000000 ) ) ;
#153 = PERSON_AND_ORGANIZATION ( #136, #122 ) ;
#154 = CARTESIAN_POINT ( 'NONE',  ( 1.905196178682334814E-13, -6.000000000000022204, 54.56698729810774751 ) ) ;
#155 = AXIS2_PLACEMENT_3D ( 'NONE', #127, #72, #13 ) ;
#156 = LOCAL_TIME ( 13, 36, 19.00000000000000000, #60 ) ;
#157 = APPROVAL_ROLE ( '' ) ;
#158 = PERSON_AND_ORGANIZATION ( #136, #122 ) ;
#159 = PERSON_AND_ORGANIZATION_ROLE ( 'design_supplier' ) ;
#160 = AXIS2_PLACEMENT_3D ( 'NONE', #139, #21, #90 ) ;
#161 = DIRECTION ( 'NONE',  ( -3.491481338843133355E-15, 1.224646799147353207E-16, -1.000000000000000000 ) ) ;
#162 = CARTESIAN_POINT ( 'NONE',  ( 1.396592535537253342E-13, -1.730869917914697153E-14, 40.00000000000000000 ) ) ;
#163 = ORIENTED_EDGE ( 'NONE', *, *, #117, .F. ) ;
#164 = DIRECTION ( 'NONE',  ( -3.491481338843133355E-15, 1.224646799147353207E-16, -1.000000000000000000 ) ) ;
#165 = AXIS2_PLACEMENT_3D ( 'NONE', #22, #229, #106 ) ;
#166 = DIRECTION ( 'NONE',  ( -3.491481338843133355E-15, 1.224646799147353207E-16, -1.000000000000000000 ) ) ;
#167 = CARTESIAN_POINT ( 'NONE',  ( 1.396592535537253342E-13, 4.499279347985561328E-32, 40.00000000000000000 ) ) ;
#168 = VERTEX_POINT ( 'NONE', #154 ) ;
#169 = EDGE_LOOP ( 'NONE', ( #250 ) ) ;
#170 = PERSON_AND_ORGANIZATION ( #136, #122 ) ;
#171 = ORIENTED_EDGE ( 'NONE', *, *, #260, .F. ) ;
#172 =( LENGTH_UNIT ( ) NAMED_UNIT ( * ) SI_UNIT ( .MILLI., .METRE. ) );
#173 = DIRECTION ( 'NONE',  ( 3.491481338843133355E-15, -1.224646799147353207E-16, 1.000000000000000000 ) ) ;
#174 = APPROVAL_STATUS ( 'not_yet_approved' ) ;
#175 = APPROVAL_STATUS ( 'not_yet_approved' ) ;
#176 = EDGE_CURVE ( 'NONE', #194, #194, #112, .T. ) ;
#177 = CLOSED_SHELL ( 'NONE', ( #197, #79, #56, #236, #36, #134, #47 ) ) ;
#178 = APPROVAL_PERSON_ORGANIZATION ( #234, #83, #130 ) ;
#179 = PERSON_AND_ORGANIZATION_ROLE ( 'classification_officer' ) ;
#180 = DIRECTION ( 'NONE',  ( -4.275831445896958607E-31, -1.000000000000000000, -1.224646799147353207E-16 ) ) ;
#181 = CIRCLE ( 'NONE', #198, 5.383974596215580277 ) ;
#182 = CARTESIAN_POINT ( 'NONE',  ( 1.396592535537253342E-13, 4.499279347985561328E-32, 40.00000000000000000 ) ) ;
#183 = DIRECTION ( 'NONE',  ( 1.510825004591027855E-30, 1.000000000000000000, 4.327174794786742882E-16 ) ) ;
#184 = PRODUCT_RELATED_PRODUCT_CATEGORY ( 'detail', '', ( #35 ) ) ;
#185 = VERTEX_POINT ( 'NONE', #187 ) ;
#186 = MANIFOLD_SOLID_BREP ( 'Corps-Déplacer/Copier1[1]', #177 ) ;
#187 = CARTESIAN_POINT ( 'NONE',  ( 3.561310965619995770E-13, 4.999999999999989342, 102.0000000000000000 ) ) ;
#188 = ORIENTED_EDGE ( 'NONE', *, *, #114, .T. ) ;
#189 = EDGE_LOOP ( 'NONE', ( #255 ) ) ;
#190 = CARTESIAN_POINT ( 'NONE',  ( 1.396592535537253342E-13, -5.250000000000025757, 40.00000000000000000 ) ) ;
#191 = EDGE_LOOP ( 'NONE', ( #71 ) ) ;
#192 = CC_DESIGN_APPROVAL ( #18, ( #217 ) ) ;
#193 = CC_DESIGN_SECURITY_CLASSIFICATION ( #39, ( #85 ) ) ;
#194 = VERTEX_POINT ( 'NONE', #27 ) ;
#195 = PLANE ( 'NONE',  #253 ) ;
#196 = VERTEX_POINT ( 'NONE', #33 ) ;
#197 = ADVANCED_FACE ( 'NONE', ( #101, #23 ), #100, .T. ) ;
#198 = AXIS2_PLACEMENT_3D ( 'NONE', #138, #84, #5 ) ;
#199 = EDGE_CURVE ( 'NONE', #109, #109, #135, .T. ) ;
#200 = APPROVAL_STATUS ( 'not_yet_approved' ) ;
#201 = PERSON_AND_ORGANIZATION ( #136, #122 ) ;
#202 = DIRECTION ( 'NONE',  ( -3.491481338843133355E-15, 1.224646799147353207E-16, -1.000000000000000000 ) ) ;
#203 = DIRECTION ( 'NONE',  ( 4.275831445896958607E-31, 1.000000000000000000, 1.224646799147353207E-16 ) ) ;
#204 = DIRECTION ( 'NONE',  ( 0.0000000000000000000, -1.000000000000000000, 0.0000000000000000000 ) ) ;
#205 = EDGE_CURVE ( 'NONE', #196, #196, #241, .T. ) ;
#206 = EDGE_LOOP ( 'NONE', ( #9 ) ) ;
#207 = VERTEX_POINT ( 'NONE', #104 ) ;
#208 = PLANE ( 'NONE',  #57 ) ;
#209 = ORIENTED_EDGE ( 'NONE', *, *, #176, .F. ) ;
#210 = PERSON_AND_ORGANIZATION ( #136, #122 ) ;
#211 = FACE_OUTER_BOUND ( 'NONE', #231, .T. ) ;
#212 = DATE_AND_TIME ( #257, #238 ) ;
#213 = EDGE_LOOP ( 'NONE', ( #252 ) ) ;
#214 = EDGE_LOOP ( 'NONE', ( #171 ) ) ;
#215 = AXIS2_PLACEMENT_3D ( 'NONE', #228, #41, #204 ) ;
#216 = MECHANICAL_CONTEXT ( 'NONE', #262, 'mechanical' ) ;
#217 = PRODUCT_DEFINITION ( 'UNKNOWN', '', #85, #43 ) ;
#218 = APPROVAL_DATE_TIME ( #92, #18 ) ;
#219 = DATE_TIME_ROLE ( 'classification_date' ) ;
#220 = EDGE_CURVE ( 'NONE', #149, #149, #1, .T. ) ;
#221 = PERSON_AND_ORGANIZATION_ROLE ( 'creator' ) ;
#222 = AXIS2_PLACEMENT_3D ( 'NONE', #142, #46, #25 ) ;
#223 = AXIS2_PLACEMENT_3D ( 'NONE', #162, #161, #4 ) ;
#224 = CARTESIAN_POINT ( 'NONE',  ( 3.561310965619995770E-13, 3.749399456654627598E-32, 102.0000000000000000 ) ) ;
#225 = FACE_OUTER_BOUND ( 'NONE', #233, .T. ) ;
#226 = FACE_BOUND ( 'NONE', #49, .T. ) ;
#227 = AXIS2_PLACEMENT_3D ( 'NONE', #65, #81, #183 ) ;
#228 = CARTESIAN_POINT ( 'NONE',  ( 1.905196178682334814E-13, -2.361208920638201647E-14, 54.56698729810774751 ) ) ;
#229 = DIRECTION ( 'NONE',  ( -3.491481338843133355E-15, 4.327174794786742882E-16, -1.000000000000000000 ) ) ;
#230 = ORIENTED_EDGE ( 'NONE', *, *, #199, .F. ) ;
#231 = EDGE_LOOP ( 'NONE', ( #248 ) ) ;
#232 = APPROVAL_PERSON_ORGANIZATION ( #158, #89, #157 ) ;
#233 = EDGE_LOOP ( 'NONE', ( #145 ) ) ;
#234 = PERSON_AND_ORGANIZATION ( #136, #122 ) ;
#235 = FACE_OUTER_BOUND ( 'NONE', #51, .T. ) ;
#236 = ADVANCED_FACE ( 'NONE', ( #64, #42 ), #48, .T. ) ;
#237 = APPLICATION_PROTOCOL_DEFINITION ( 'international standard', 'config_control_design', 1994, #17 ) ;
#238 = LOCAL_TIME ( 13, 36, 19.00000000000000000, #96 ) ;
#239 = DATE_AND_TIME ( #77, #156 ) ;
#240 = PERSON_AND_ORGANIZATION ( #136, #122 ) ;
#241 = CIRCLE ( 'NONE', #160, 5.250000000000007994 ) ;
#242 = DIRECTION ( 'NONE',  ( -3.491481338843133355E-15, 4.327174794786742882E-16, -1.000000000000000000 ) ) ;
#243 = ADVANCED_FACE ( 'NONE', ( #126 ), #208, .T. ) ;
#244 = CARTESIAN_POINT ( 'NONE',  ( 3.526396152231564058E-13, -1.236893267138826416E-14, 100.9999999999999716 ) ) ;
#245 = CARTESIAN_POINT ( 'NONE',  ( 3.561310965619995770E-13, -1.249139735130300089E-14, 102.0000000000000000 ) ) ;
#246 = AXIS2_PLACEMENT_3D ( 'NONE', #224, #247, #203 ) ;
#247 = DIRECTION ( 'NONE',  ( -3.491481338843133355E-15, 1.224646799147353207E-16, -1.000000000000000000 ) ) ;
#248 = ORIENTED_EDGE ( 'NONE', *, *, #205, .F. ) ;
#249 = COORDINATED_UNIVERSAL_TIME_OFFSET ( 1, 0, .AHEAD. ) ;
#250 = ORIENTED_EDGE ( 'NONE', *, *, #260, .T. ) ;
#251 = APPLICATION_PROTOCOL_DEFINITION ( 'international standard', 'config_control_design', 1994, #262 ) ;
#252 = ORIENTED_EDGE ( 'NONE', *, *, #220, .F. ) ;
#253 = AXIS2_PLACEMENT_3D ( 'NONE', #167, #66, #103 ) ;
#254 = PERSON_AND_ORGANIZATION_ROLE ( 'creator' ) ;
#255 = ORIENTED_EDGE ( 'NONE', *, *, #114, .F. ) ;
#256 = CC_DESIGN_PERSON_AND_ORGANIZATION_ASSIGNMENT ( #153, #221, ( #85 ) ) ;
#257 = CALENDAR_DATE ( 2021, 13, 10 ) ;
#258 = COORDINATED_UNIVERSAL_TIME_OFFSET ( 1, 0, .AHEAD. ) ;
#259 = CONICAL_SURFACE ( 'NONE', #80, 5.999999999999989342, 1.221730476396026388 ) ;
#260 = EDGE_CURVE ( 'NONE', #10, #10, #70, .T. ) ;
#261 = AXIS2_PLACEMENT_3D ( 'NONE', #244, #120, #86 ) ;
#262 = APPLICATION_CONTEXT ( 'configuration controlled 3d designs of mechanical parts and assemblies' ) ;
#263 = CALENDAR_DATE ( 2021, 13, 10 ) ;
ENDSEC;
END-ISO-10303-21;
