ISO-10303-21;
HEADER;
FILE_DESCRIPTION (( 'STEP AP203' ),
    '1' );
FILE_NAME ('43549.step',
    '2021-10-13T11:36:19',
    ( '' ),
    ( '' ),
    'SwSTEP 2.0',
    'SolidWorks 2019',
    '' );
FILE_SCHEMA (( 'CONFIG_CONTROL_DESIGN' ));
ENDSEC;

DATA;
#1 = EDGE_CURVE ( 'NONE', #63, #63, #114, .T. ) ;
#2 = DIRECTION ( 'NONE',  ( -3.491481338843133355E-15, 4.327174794786742882E-16, -1.000000000000000000 ) ) ;
#3 = PLANE ( 'NONE',  #96 ) ;
#4 = CONICAL_SURFACE ( 'NONE', #141, 5.999999999999989342, 1.221730476396026388 ) ;
#5 = DIRECTION ( 'NONE',  ( -4.275831445896958607E-31, -1.000000000000000000, -1.224646799147353207E-16 ) ) ;
#6 = DATE_AND_TIME ( #49, #147 ) ;
#7 = ORIENTED_EDGE ( 'NONE', *, *, #1, .T. ) ;
#8 = AXIS2_PLACEMENT_3D ( 'NONE', #243, #131, #148 ) ;
#9 = ORIENTED_EDGE ( 'NONE', *, *, #183, .T. ) ;
#10 = ORIENTED_EDGE ( 'NONE', *, *, #216, .T. ) ;
#11 = CARTESIAN_POINT ( 'NONE',  ( 1.396592535537253342E-13, -1.730869917914697153E-14, 40.00000000000000000 ) ) ;
#12 = CYLINDRICAL_SURFACE ( 'NONE', #188, 5.999999999999998224 ) ;
#13 = EDGE_LOOP ( 'NONE', ( #9 ) ) ;
#14 = ADVANCED_FACE ( 'NONE', ( #140 ), #16, .F. ) ;
#15 = CIRCLE ( 'NONE', #146, 5.100000000000007638 ) ;
#16 = PLANE ( 'NONE',  #42 ) ;
#17 = CARTESIAN_POINT ( 'NONE',  ( 1.396592535537253342E-13, -5.100000000000024514, 40.00000000000000000 ) ) ;
#18 = PLANE ( 'NONE',  #8 ) ;
#19 = DIRECTION ( 'NONE',  ( -3.491481338843133355E-15, 4.327174794786742882E-16, -1.000000000000000000 ) ) ;
#20 = VERTEX_POINT ( 'NONE', #67 ) ;
#21 = PRODUCT_RELATED_PRODUCT_CATEGORY ( 'detail', '', ( #159 ) ) ;
#22 = AXIS2_PLACEMENT_3D ( 'NONE', #83, #40, #169 ) ;
#23 = APPROVAL_PERSON_ORGANIZATION ( #70, #247, #24 ) ;
#24 = APPROVAL_ROLE ( '' ) ;
#25 = CALENDAR_DATE ( 2021, 13, 10 ) ;
#26 = ORIENTED_EDGE ( 'NONE', *, *, #171, .T. ) ;
#27 = PERSON_AND_ORGANIZATION_ROLE ( 'design_owner' ) ;
#28 = PERSON_AND_ORGANIZATION_ROLE ( 'design_supplier' ) ;
#29 = EDGE_LOOP ( 'NONE', ( #213 ) ) ;
#30 = EDGE_LOOP ( 'NONE', ( #7 ) ) ;
#31 = DIRECTION ( 'NONE',  ( -5.135813185032638283E-31, -1.000000000000000000, -1.445602896647341875E-16 ) ) ;
#32 = CC_DESIGN_SECURITY_CLASSIFICATION ( #74, ( #255 ) ) ;
#33 = DIRECTION ( 'NONE',  ( 1.510825004591027855E-30, 1.000000000000000000, 4.327174794786742882E-16 ) ) ;
#34 = FACE_OUTER_BOUND ( 'NONE', #249, .T. ) ;
#35 = ADVANCED_FACE ( 'NONE', ( #34, #124 ), #196, .F. ) ;
#36 = DIRECTION ( 'NONE',  ( -3.491481338843133355E-15, 4.327174794786742882E-16, -1.000000000000000000 ) ) ;
#37 = AXIS2_PLACEMENT_3D ( 'NONE', #53, #197, #257 ) ;
#38 = AXIS2_PLACEMENT_3D ( 'NONE', #162, #259, #178 ) ;
#39 = CYLINDRICAL_SURFACE ( 'NONE', #263, 5.100000000000007638 ) ;
#40 = DIRECTION ( 'NONE',  ( -3.491481338843133355E-15, 1.224646799147353207E-16, -1.000000000000000000 ) ) ;
#41 =( NAMED_UNIT ( * ) SI_UNIT ( $, .STERADIAN. ) SOLID_ANGLE_UNIT ( ) );
#42 = AXIS2_PLACEMENT_3D ( 'NONE', #121, #100, #143 ) ;
#43 = UNCERTAINTY_MEASURE_WITH_UNIT (LENGTH_MEASURE( 1.000000000000000082E-05 ), #150, 'distance_accuracy_value', 'NONE');
#44 = DIRECTION ( 'NONE',  ( 1.510825004591027679E-30, 1.000000000000000000, 4.327174794786742882E-16 ) ) ;
#45 = APPROVAL_STATUS ( 'not_yet_approved' ) ;
#46 = PRODUCT_DEFINITION_SHAPE ( 'NONE', 'NONE',  #158 ) ;
#47 = PERSON_AND_ORGANIZATION ( #166, #239 ) ;
#48 = EDGE_LOOP ( 'NONE', ( #192 ) ) ;
#49 = CALENDAR_DATE ( 2021, 13, 10 ) ;
#50 = COORDINATED_UNIVERSAL_TIME_OFFSET ( 1, 0, .AHEAD. ) ;
#51 = ORIENTED_EDGE ( 'NONE', *, *, #180, .F. ) ;
#52 = LOCAL_TIME ( 13, 36, 19.00000000000000000, #227 ) ;
#53 = CARTESIAN_POINT ( 'NONE',  ( 6.481055932257621685E-15, -2.273248410133019699E-16, 1.856248194757659231 ) ) ;
#54 = ADVANCED_BREP_SHAPE_REPRESENTATION ( '43549', ( #126, #125, #220 ), #97 ) ;
#55 = DIRECTION ( 'NONE',  ( -3.491481338843133355E-15, 1.224646799147353207E-16, -1.000000000000000000 ) ) ;
#56 = CIRCLE ( 'NONE', #92, 5.999999999999998224 ) ;
#57 = DIRECTION ( 'NONE',  ( 4.275831445896958607E-31, 1.000000000000000000, 1.224646799147353207E-16 ) ) ;
#58 = FACE_OUTER_BOUND ( 'NONE', #89, .T. ) ;
#59 = CARTESIAN_POINT ( 'NONE',  ( 1.944504428653942749E-13, -2.409925683523916846E-14, 55.69282032302754715 ) ) ;
#60 = CONICAL_SURFACE ( 'NONE', #22, 5.000000000000001776, 0.7853981633974410625 ) ;
#61 = PERSON_AND_ORGANIZATION ( #166, #239 ) ;
#62 = DIRECTION ( 'NONE',  ( 3.491481338843133355E-15, -1.224646799147353207E-16, 1.000000000000000000 ) ) ;
#63 = VERTEX_POINT ( 'NONE', #108 ) ;
#64 = VERTEX_POINT ( 'NONE', #17 ) ;
#65 = CIRCLE ( 'NONE', #38, 6.000000000000001776 ) ;
#66 = APPROVAL_PERSON_ORGANIZATION ( #194, #105, #229 ) ;
#67 = CARTESIAN_POINT ( 'NONE',  ( 1.867942516281076661E-13, 5.233974596215555053, 53.50000000000000711 ) ) ;
#68 = APPROVAL_STATUS ( 'not_yet_approved' ) ;
#69 = ADVANCED_FACE ( 'NONE', ( #237 ), #4, .T. ) ;
#70 = PERSON_AND_ORGANIZATION ( #166, #239 ) ;
#71 = ORIENTED_EDGE ( 'NONE', *, *, #144, .F. ) ;
#72 = APPROVAL_STATUS ( 'not_yet_approved' ) ;
#73 = CC_DESIGN_APPROVAL ( #204, ( #158 ) ) ;
#74 = SECURITY_CLASSIFICATION ( '', '', #226 ) ;
#75 = DIRECTION ( 'NONE',  ( 0.0000000000000000000, -1.000000000000000000, 0.0000000000000000000 ) ) ;
#76 = EDGE_CURVE ( 'NONE', #127, #127, #65, .T. ) ;
#77 = DIRECTION ( 'NONE',  ( 3.491481338843133355E-15, -4.327174794786742882E-16, 1.000000000000000000 ) ) ;
#78 = CARTESIAN_POINT ( 'NONE',  ( 1.396592535537253342E-13, -1.730869917914697153E-14, 40.00000000000000000 ) ) ;
#79 = DIRECTION ( 'NONE',  ( 0.0000000000000000000, -1.000000000000000000, 0.0000000000000000000 ) ) ;
#80 = CC_DESIGN_PERSON_AND_ORGANIZATION_ASSIGNMENT ( #47, #28, ( #255 ) ) ;
#81 = FACE_OUTER_BOUND ( 'NONE', #156, .T. ) ;
#82 = DESIGN_CONTEXT ( 'detailed design', #225, 'design' ) ;
#83 = CARTESIAN_POINT ( 'NONE',  ( 3.561310965619995770E-13, -1.249139735130300089E-14, 102.0000000000000000 ) ) ;
#84 = ADVANCED_FACE ( 'NONE', ( #261, #58 ), #173, .T. ) ;
#85 = APPLICATION_PROTOCOL_DEFINITION ( 'international standard', 'config_control_design', 1994, #186 ) ;
#86 = CIRCLE ( 'NONE', #37, 5.100000000000007638 ) ;
#87 = PERSON_AND_ORGANIZATION ( #166, #239 ) ;
#88 = CC_DESIGN_PERSON_AND_ORGANIZATION_ASSIGNMENT ( #246, #175, ( #74 ) ) ;
#89 = EDGE_LOOP ( 'NONE', ( #176 ) ) ;
#90 = PERSON_AND_ORGANIZATION ( #166, #239 ) ;
#91 = EDGE_LOOP ( 'NONE', ( #26 ) ) ;
#92 = AXIS2_PLACEMENT_3D ( 'NONE', #161, #215, #119 ) ;
#93 = CC_DESIGN_APPROVAL ( #247, ( #255 ) ) ;
#94 = EDGE_LOOP ( 'NONE', ( #95 ) ) ;
#95 = ORIENTED_EDGE ( 'NONE', *, *, #171, .F. ) ;
#96 = AXIS2_PLACEMENT_3D ( 'NONE', #165, #62, #5 ) ;
#97 =( GEOMETRIC_REPRESENTATION_CONTEXT ( 3 ) GLOBAL_UNCERTAINTY_ASSIGNED_CONTEXT ( ( #43 ) ) GLOBAL_UNIT_ASSIGNED_CONTEXT ( ( #150, #149, #41 ) ) REPRESENTATION_CONTEXT ( 'NONE', 'WORKASPACE' ) );
#98 = DIRECTION ( 'NONE',  ( -3.491481338843133355E-15, 1.224646799147353207E-16, -1.000000000000000000 ) ) ;
#99 = CARTESIAN_POINT ( 'NONE',  ( 0.0000000000000000000, 0.0000000000000000000, 0.0000000000000000000 ) ) ;
#100 = DIRECTION ( 'NONE',  ( -3.491481338843133355E-15, 1.224646799147353207E-16, -1.000000000000000000 ) ) ;
#101 = LOCAL_TIME ( 13, 36, 19.00000000000000000, #252 ) ;
#102 = DIRECTION ( 'NONE',  ( 0.0000000000000000000, 1.000000000000000000, 0.0000000000000000000 ) ) ;
#103 = ORIENTED_EDGE ( 'NONE', *, *, #111, .T. ) ;
#104 = CARTESIAN_POINT ( 'NONE',  ( 1.850485109586860552E-13, -2.293402641236973727E-14, 53.00000000000000000 ) ) ;
#105 = APPROVAL ( #45, 'UNSPECIFIED' ) ;
#106 = FACE_OUTER_BOUND ( 'NONE', #94, .T. ) ;
#107 = AXIS2_PLACEMENT_3D ( 'NONE', #219, #36, #117 ) ;
#108 = CARTESIAN_POINT ( 'NONE',  ( 3.561310965619995770E-13, 4.999999999999989342, 102.0000000000000000 ) ) ;
#109 = LOCAL_TIME ( 13, 36, 19.00000000000000000, #251 ) ;
#110 = PERSON_AND_ORGANIZATION_ROLE ( 'creator' ) ;
#111 = EDGE_CURVE ( 'NONE', #20, #20, #244, .T. ) ;
#112 = DATE_TIME_ROLE ( 'classification_date' ) ;
#113 = APPROVAL_DATE_TIME ( #157, #247 ) ;
#114 = CIRCLE ( 'NONE', #250, 5.000000000000001776 ) ;
#115 = PERSON_AND_ORGANIZATION ( #166, #239 ) ;
#116 = ORIENTED_EDGE ( 'NONE', *, *, #76, .T. ) ;
#117 = DIRECTION ( 'NONE',  ( 0.0000000000000000000, 1.000000000000000000, 0.0000000000000000000 ) ) ;
#118 = CLOSED_SHELL ( 'NONE', ( #187, #203, #14, #160, #84, #35, #212 ) ) ;
#119 = DIRECTION ( 'NONE',  ( 0.0000000000000000000, -1.000000000000000000, 0.0000000000000000000 ) ) ;
#120 = FACE_BOUND ( 'NONE', #30, .T. ) ;
#121 = CARTESIAN_POINT ( 'NONE',  ( 3.561310965619995770E-13, 3.749399456654627598E-32, 102.0000000000000000 ) ) ;
#122 = CIRCLE ( 'NONE', #254, 5.100000000000007638 ) ;
#123 = CC_DESIGN_PERSON_AND_ORGANIZATION_ASSIGNMENT ( #115, #208, ( #158 ) ) ;
#124 = FACE_OUTER_BOUND ( 'NONE', #193, .T. ) ;
#125 = MANIFOLD_SOLID_BREP ( 'Corps-Déplacer/Copier1[2]', #154 ) ;
#126 = MANIFOLD_SOLID_BREP ( 'Corps-Déplacer/Copier1[1]', #118 ) ;
#127 = VERTEX_POINT ( 'NONE', #152 ) ;
#128 = VERTEX_POINT ( 'NONE', #221 ) ;
#129 = AXIS2_PLACEMENT_3D ( 'NONE', #104, #2, #241 ) ;
#130 = CARTESIAN_POINT ( 'NONE',  ( 1.914267313291167201E-13, -6.000000000000022204, 54.82679491924307769 ) ) ;
#131 = DIRECTION ( 'NONE',  ( 3.491481338843133355E-15, -1.224646799147353207E-16, 1.000000000000000000 ) ) ;
#132 = APPROVAL_DATE_TIME ( #209, #105 ) ;
#133 = APPROVAL_PERSON_ORGANIZATION ( #90, #204, #134 ) ;
#134 = APPROVAL_ROLE ( '' ) ;
#135 = DATE_TIME_ROLE ( 'creation_date' ) ;
#136 = ORIENTED_EDGE ( 'NONE', *, *, #216, .F. ) ;
#137 = AXIS2_PLACEMENT_3D ( 'NONE', #59, #77, #145 ) ;
#138 = CC_DESIGN_PERSON_AND_ORGANIZATION_ASSIGNMENT ( #87, #110, ( #255 ) ) ;
#139 = EDGE_LOOP ( 'NONE', ( #231 ) ) ;
#140 = FACE_OUTER_BOUND ( 'NONE', #29, .T. ) ;
#141 = AXIS2_PLACEMENT_3D ( 'NONE', #182, #181, #31 ) ;
#142 = FACE_OUTER_BOUND ( 'NONE', #211, .T. ) ;
#143 = DIRECTION ( 'NONE',  ( 4.275831445896958607E-31, 1.000000000000000000, 1.224646799147353207E-16 ) ) ;
#144 = EDGE_CURVE ( 'NONE', #202, #202, #15, .T. ) ;
#145 = DIRECTION ( 'NONE',  ( 0.0000000000000000000, -1.000000000000000000, 0.0000000000000000000 ) ) ;
#146 = AXIS2_PLACEMENT_3D ( 'NONE', #78, #200, #79 ) ;
#147 = LOCAL_TIME ( 13, 36, 19.00000000000000000, #155 ) ;
#148 = DIRECTION ( 'NONE',  ( -4.275831445896958607E-31, -1.000000000000000000, -1.224646799147353207E-16 ) ) ;
#149 =( NAMED_UNIT ( * ) PLANE_ANGLE_UNIT ( ) SI_UNIT ( $, .RADIAN. ) );
#150 =( LENGTH_UNIT ( ) NAMED_UNIT ( * ) SI_UNIT ( .MILLI., .METRE. ) );
#151 = DIRECTION ( 'NONE',  ( 0.0000000000000000000, 0.0000000000000000000, 1.000000000000000000 ) ) ;
#152 = CARTESIAN_POINT ( 'NONE',  ( 3.526396152231564058E-13, 5.999999999999989342, 100.9999999999999716 ) ) ;
#153 = DATE_AND_TIME ( #25, #101 ) ;
#154 = CLOSED_SHELL ( 'NONE', ( #69, #207, #232 ) ) ;
#155 = COORDINATED_UNIVERSAL_TIME_OFFSET ( 1, 0, .AHEAD. ) ;
#156 = EDGE_LOOP ( 'NONE', ( #51 ) ) ;
#157 = DATE_AND_TIME ( #230, #52 ) ;
#158 = PRODUCT_DEFINITION ( 'UNKNOWN', '', #255, #82 ) ;
#159 = PRODUCT ( '43549', '43549', '', ( #245 ) ) ;
#160 = ADVANCED_FACE ( 'NONE', ( #260, #164 ), #39, .T. ) ;
#161 = CARTESIAN_POINT ( 'NONE',  ( 1.914267313291167201E-13, -2.372451250534905179E-14, 54.82679491924307769 ) ) ;
#162 = CARTESIAN_POINT ( 'NONE',  ( 3.526396152231564058E-13, -1.236893267138826416E-14, 100.9999999999999716 ) ) ;
#163 = CARTESIAN_POINT ( 'NONE',  ( 1.850485109586860805E-13, -2.255140518769849223E-14, 53.00000000000000711 ) ) ;
#164 = FACE_OUTER_BOUND ( 'NONE', #195, .T. ) ;
#165 = CARTESIAN_POINT ( 'NONE',  ( 1.396592535537253342E-13, 4.499279347985561328E-32, 40.00000000000000000 ) ) ;
#166 = PERSON ( 'UNSPECIFIED', 'UNSPECIFIED', 'UNSPECIFIED', ('UNSPECIFIED'), ('UNSPECIFIED'), ('UNSPECIFIED') ) ;
#167 = CARTESIAN_POINT ( 'NONE',  ( 1.850485109586860552E-13, 5.099999999999992539, 53.00000000000000000 ) ) ;
#168 = CARTESIAN_POINT ( 'NONE',  ( 1.396592535537253342E-13, -5.100000000000024514, 40.00000000000000000 ) ) ;
#169 = DIRECTION ( 'NONE',  ( 0.0000000000000000000, 1.000000000000000000, 0.0000000000000000000 ) ) ;
#170 = CARTESIAN_POINT ( 'NONE',  ( 0.0000000000000000000, 0.0000000000000000000, 0.0000000000000000000 ) ) ;
#171 = EDGE_CURVE ( 'NONE', #128, #128, #86, .T. ) ;
#172 = EDGE_LOOP ( 'NONE', ( #10 ) ) ;
#173 = CONICAL_SURFACE ( 'NONE', #137, 6.500000000000019540, 0.5235987755983018133 ) ;
#174 = APPLICATION_PROTOCOL_DEFINITION ( 'international standard', 'config_control_design', 1994, #225 ) ;
#175 = PERSON_AND_ORGANIZATION_ROLE ( 'classification_officer' ) ;
#176 = ORIENTED_EDGE ( 'NONE', *, *, #183, .F. ) ;
#177 = ORIENTED_EDGE ( 'NONE', *, *, #111, .F. ) ;
#178 = DIRECTION ( 'NONE',  ( 0.0000000000000000000, 1.000000000000000000, 0.0000000000000000000 ) ) ;
#179 = EDGE_LOOP ( 'NONE', ( #177 ) ) ;
#180 = EDGE_CURVE ( 'NONE', #64, #64, #122, .T. ) ;
#181 = DIRECTION ( 'NONE',  ( 3.491481338843133355E-15, -1.224646799147353207E-16, 1.000000000000000000 ) ) ;
#182 = CARTESIAN_POINT ( 'NONE',  ( 7.624771685008940888E-15, -2.674409894274132817E-16, 2.183821405597239362 ) ) ;
#183 = EDGE_CURVE ( 'NONE', #205, #205, #56, .T. ) ;
#184 = FACE_OUTER_BOUND ( 'NONE', #139, .T. ) ;
#185 = CYLINDRICAL_SURFACE ( 'NONE', #238, 5.100000000000007638 ) ;
#186 = APPLICATION_CONTEXT ( 'configuration controlled 3d designs of mechanical parts and assemblies' ) ;
#187 = ADVANCED_FACE ( 'NONE', ( #198, #142 ), #12, .T. ) ;
#188 = AXIS2_PLACEMENT_3D ( 'NONE', #99, #218, #57 ) ;
#189 = SHAPE_DEFINITION_REPRESENTATION ( #46, #54 ) ;
#190 = CC_DESIGN_DATE_AND_TIME_ASSIGNMENT ( #153, #112, ( #74 ) ) ;
#191 = CALENDAR_DATE ( 2021, 13, 10 ) ;
#192 = ORIENTED_EDGE ( 'NONE', *, *, #76, .F. ) ;
#193 = EDGE_LOOP ( 'NONE', ( #103 ) ) ;
#194 = PERSON_AND_ORGANIZATION ( #166, #239 ) ;
#195 = EDGE_LOOP ( 'NONE', ( #71 ) ) ;
#196 = TOROIDAL_SURFACE ( 'NONE', #258, 6.100000000000016520, 1.000000000000000444 ) ;
#197 = DIRECTION ( 'NONE',  ( -3.491481338843133355E-15, 1.224646799147353207E-16, -1.000000000000000000 ) ) ;
#198 = FACE_OUTER_BOUND ( 'NONE', #13, .T. ) ;
#199 = DIRECTION ( 'NONE',  ( -3.491481338843133355E-15, 4.327174794786742882E-16, -1.000000000000000000 ) ) ;
#200 = DIRECTION ( 'NONE',  ( -3.491481338843133355E-15, 1.224646799147353207E-16, -1.000000000000000000 ) ) ;
#201 = CARTESIAN_POINT ( 'NONE',  ( 0.0000000000000000000, 0.0000000000000000000, 0.0000000000000000000 ) ) ;
#202 = VERTEX_POINT ( 'NONE', #168 ) ;
#203 = ADVANCED_FACE ( 'NONE', ( #236, #120 ), #60, .T. ) ;
#204 = APPROVAL ( #72, 'UNSPECIFIED' ) ;
#205 = VERTEX_POINT ( 'NONE', #130 ) ;
#206 = CALENDAR_DATE ( 2021, 13, 10 ) ;
#207 = ADVANCED_FACE ( 'NONE', ( #222, #106 ), #185, .T. ) ;
#208 = PERSON_AND_ORGANIZATION_ROLE ( 'creator' ) ;
#209 = DATE_AND_TIME ( #191, #217 ) ;
#210 = APPROVAL_DATE_TIME ( #6, #204 ) ;
#211 = EDGE_LOOP ( 'NONE', ( #116 ) ) ;
#212 = ADVANCED_FACE ( 'NONE', ( #184 ), #3, .F. ) ;
#213 = ORIENTED_EDGE ( 'NONE', *, *, #1, .F. ) ;
#214 = CARTESIAN_POINT ( 'NONE',  ( 3.561310965619995770E-13, -1.249139735130300089E-14, 102.0000000000000000 ) ) ;
#215 = DIRECTION ( 'NONE',  ( 3.491481338843133355E-15, -4.327174794786742882E-16, 1.000000000000000000 ) ) ;
#216 = EDGE_CURVE ( 'NONE', #240, #240, #235, .T. ) ;
#217 = LOCAL_TIME ( 13, 36, 19.00000000000000000, #50 ) ;
#218 = DIRECTION ( 'NONE',  ( -3.491481338843133355E-15, 1.224646799147353207E-16, -1.000000000000000000 ) ) ;
#219 = CARTESIAN_POINT ( 'NONE',  ( 1.867942516281076661E-13, -2.315038515210907600E-14, 53.50000000000000711 ) ) ;
#220 = AXIS2_PLACEMENT_3D ( 'NONE', #170, #151, #262 ) ;
#221 = CARTESIAN_POINT ( 'NONE',  ( 6.481055932257619318E-15, -5.100000000000007638, 1.856248194757658565 ) ) ;
#222 = FACE_OUTER_BOUND ( 'NONE', #234, .T. ) ;
#223 = CC_DESIGN_APPROVAL ( #105, ( #74 ) ) ;
#224 = CARTESIAN_POINT ( 'NONE',  ( 0.0000000000000000000, 0.0000000000000000000, 0.0000000000000000000 ) ) ;
#225 = APPLICATION_CONTEXT ( 'configuration controlled 3d designs of mechanical parts and assemblies' ) ;
#226 = SECURITY_CLASSIFICATION_LEVEL ( 'unclassified' ) ;
#227 = COORDINATED_UNIVERSAL_TIME_OFFSET ( 1, 0, .AHEAD. ) ;
#228 = ORIENTED_EDGE ( 'NONE', *, *, #180, .T. ) ;
#229 = APPROVAL_ROLE ( '' ) ;
#230 = CALENDAR_DATE ( 2021, 13, 10 ) ;
#231 = ORIENTED_EDGE ( 'NONE', *, *, #144, .T. ) ;
#232 = ADVANCED_FACE ( 'NONE', ( #81 ), #18, .T. ) ;
#233 = DIRECTION ( 'NONE',  ( -3.491481338843133355E-15, 4.327174794786742882E-16, -1.000000000000000000 ) ) ;
#234 = EDGE_LOOP ( 'NONE', ( #228 ) ) ;
#235 = CIRCLE ( 'NONE', #129, 5.100000000000014744 ) ;
#236 = FACE_OUTER_BOUND ( 'NONE', #48, .T. ) ;
#237 = FACE_OUTER_BOUND ( 'NONE', #91, .T. ) ;
#238 = AXIS2_PLACEMENT_3D ( 'NONE', #224, #19, #44 ) ;
#239 = ORGANIZATION ( 'UNSPECIFIED', 'UNSPECIFIED', '' ) ;
#240 = VERTEX_POINT ( 'NONE', #167 ) ;
#241 = DIRECTION ( 'NONE',  ( 0.0000000000000000000, 1.000000000000000000, 0.0000000000000000000 ) ) ;
#242 = CC_DESIGN_PERSON_AND_ORGANIZATION_ASSIGNMENT ( #61, #27, ( #159 ) ) ;
#243 = CARTESIAN_POINT ( 'NONE',  ( 1.396592535537253342E-13, 4.499279347985561328E-32, 40.00000000000000000 ) ) ;
#244 = CIRCLE ( 'NONE', #107, 5.233974596215578146 ) ;
#245 = MECHANICAL_CONTEXT ( 'NONE', #186, 'mechanical' ) ;
#246 = PERSON_AND_ORGANIZATION ( #166, #239 ) ;
#247 = APPROVAL ( #68, 'UNSPECIFIED' ) ;
#248 = DATE_AND_TIME ( #206, #109 ) ;
#249 = EDGE_LOOP ( 'NONE', ( #136 ) ) ;
#250 = AXIS2_PLACEMENT_3D ( 'NONE', #214, #55, #102 ) ;
#251 = COORDINATED_UNIVERSAL_TIME_OFFSET ( 1, 0, .AHEAD. ) ;
#252 = COORDINATED_UNIVERSAL_TIME_OFFSET ( 1, 0, .AHEAD. ) ;
#253 = CC_DESIGN_DATE_AND_TIME_ASSIGNMENT ( #248, #135, ( #158 ) ) ;
#254 = AXIS2_PLACEMENT_3D ( 'NONE', #11, #98, #75 ) ;
#255 = PRODUCT_DEFINITION_FORMATION_WITH_SPECIFIED_SOURCE ( 'ANY', '', #159, .NOT_KNOWN. ) ;
#256 = DIRECTION ( 'NONE',  ( 1.510825004591027679E-30, 1.000000000000000000, 4.327174794786742882E-16 ) ) ;
#257 = DIRECTION ( 'NONE',  ( -4.531599869146430398E-31, -1.000000000000000000, -1.275531967630003273E-16 ) ) ;
#258 = AXIS2_PLACEMENT_3D ( 'NONE', #163, #199, #33 ) ;
#259 = DIRECTION ( 'NONE',  ( -3.491481338843133355E-15, 1.224646799147353207E-16, -1.000000000000000000 ) ) ;
#260 = FACE_OUTER_BOUND ( 'NONE', #172, .T. ) ;
#261 = FACE_BOUND ( 'NONE', #179, .T. ) ;
#262 = DIRECTION ( 'NONE',  ( 1.000000000000000000, 0.0000000000000000000, 0.0000000000000000000 ) ) ;
#263 = AXIS2_PLACEMENT_3D ( 'NONE', #201, #233, #256 ) ;
ENDSEC;
END-ISO-10303-21;
