ISO-10303-21;
HEADER;
FILE_DESCRIPTION (( 'STEP AP203' ),
    '1' );
FILE_NAME ('43548.step',
    '2021-10-13T11:36:18',
    ( '' ),
    ( '' ),
    'SwSTEP 2.0',
    'SolidWorks 2019',
    '' );
FILE_SCHEMA (( 'CONFIG_CONTROL_DESIGN' ));
ENDSEC;

DATA;
#1 = SECURITY_CLASSIFICATION_LEVEL ( 'unclassified' ) ;
#2 = DATE_AND_TIME ( #152, #60 ) ;
#3 = APPROVAL_DATE_TIME ( #104, #170 ) ;
#4 = CIRCLE ( 'NONE', #165, 5.000000000000000888 ) ;
#5 = AXIS2_PLACEMENT_3D ( 'NONE', #126, #176, #68 ) ;
#6 = DIRECTION ( 'NONE',  ( 3.491481338843133355E-15, -1.224646799147353207E-16, 1.000000000000000000 ) ) ;
#7 = EDGE_CURVE ( 'NONE', #199, #199, #99, .T. ) ;
#8 = ORIENTED_EDGE ( 'NONE', *, *, #7, .T. ) ;
#9 = EDGE_LOOP ( 'NONE', ( #39 ) ) ;
#10 = DIRECTION ( 'NONE',  ( -3.491481338843133355E-15, 1.224646799147353207E-16, -1.000000000000000000 ) ) ;
#11 = EDGE_LOOP ( 'NONE', ( #77 ) ) ;
#12 = FACE_OUTER_BOUND ( 'NONE', #11, .T. ) ;
#13 = AXIS2_PLACEMENT_3D ( 'NONE', #108, #157, #181 ) ;
#14 = DIRECTION ( 'NONE',  ( 0.0000000000000000000, 1.000000000000000000, 0.0000000000000000000 ) ) ;
#15 =( NAMED_UNIT ( * ) PLANE_ANGLE_UNIT ( ) SI_UNIT ( $, .RADIAN. ) );
#16 = ADVANCED_FACE ( 'NONE', ( #146 ), #136, .T. ) ;
#17 = PERSON_AND_ORGANIZATION ( #53, #51 ) ;
#18 = VERTEX_POINT ( 'NONE', #66 ) ;
#19 = DATE_AND_TIME ( #161, #33 ) ;
#20 = PRODUCT_DEFINITION ( 'UNKNOWN', '', #201, #90 ) ;
#21 = DIRECTION ( 'NONE',  ( 4.622231866529374805E-31, 1.000000000000000000, 1.301042606982607786E-16 ) ) ;
#22 = PRODUCT_RELATED_PRODUCT_CATEGORY ( 'detail', '', ( #84 ) ) ;
#23 = CARTESIAN_POINT ( 'NONE',  ( 0.0000000000000000000, 0.0000000000000000000, 0.0000000000000000000 ) ) ;
#24 = ORIENTED_EDGE ( 'NONE', *, *, #61, .F. ) ;
#25 = ADVANCED_BREP_SHAPE_REPRESENTATION ( '43548', ( #178, #111, #5 ), #64 ) ;
#26 = ADVANCED_FACE ( 'NONE', ( #187 ), #121, .F. ) ;
#27 = CARTESIAN_POINT ( 'NONE',  ( 3.107418391570388560E-13, 2.999519565323699889E-32, 89.00000000000000000 ) ) ;
#28 = CARTESIAN_POINT ( 'NONE',  ( 1.222018468595096801E-13, -4.286263797015736496E-15, 35.00000000000000000 ) ) ;
#29 = DIRECTION ( 'NONE',  ( -3.491481338843133355E-15, 1.224646799147353207E-16, -1.000000000000000000 ) ) ;
#30 = PERSON_AND_ORGANIZATION ( #53, #51 ) ;
#31 = COORDINATED_UNIVERSAL_TIME_OFFSET ( 1, 0, .AHEAD. ) ;
#32 = DIRECTION ( 'NONE',  ( -3.491481338843133355E-15, 1.224646799147353207E-16, -1.000000000000000000 ) ) ;
#33 = LOCAL_TIME ( 13, 36, 18.00000000000000000, #31 ) ;
#34 = CALENDAR_DATE ( 2021, 13, 10 ) ;
#35 = AXIS2_PLACEMENT_3D ( 'NONE', #28, #186, #94 ) ;
#36 = PERSON_AND_ORGANIZATION ( #53, #51 ) ;
#37 = ADVANCED_FACE ( 'NONE', ( #12 ), #79, .F. ) ;
#38 = COORDINATED_UNIVERSAL_TIME_OFFSET ( 1, 0, .AHEAD. ) ;
#39 = ORIENTED_EDGE ( 'NONE', *, *, #55, .T. ) ;
#40 = CARTESIAN_POINT ( 'NONE',  ( 3.072503578181957353E-13, -1.077689183249670724E-14, 88.00000000000000000 ) ) ;
#41 = CLOSED_SHELL ( 'NONE', ( #137, #117, #16 ) ) ;
#42 = SECURITY_CLASSIFICATION ( '', '', #1 ) ;
#43 = ORIENTED_EDGE ( 'NONE', *, *, #61, .T. ) ;
#44 = FACE_OUTER_BOUND ( 'NONE', #89, .T. ) ;
#45 = CC_DESIGN_DATE_AND_TIME_ASSIGNMENT ( #113, #145, ( #20 ) ) ;
#46 = DIRECTION ( 'NONE',  ( 4.275831445896958607E-31, 1.000000000000000000, 1.224646799147353207E-16 ) ) ;
#47 = DIRECTION ( 'NONE',  ( 0.0000000000000000000, 1.000000000000000000, 0.0000000000000000000 ) ) ;
#48 = COORDINATED_UNIVERSAL_TIME_OFFSET ( 1, 0, .AHEAD. ) ;
#49 = VERTEX_POINT ( 'NONE', #144 ) ;
#50 = APPROVAL_ROLE ( '' ) ;
#51 = ORGANIZATION ( 'UNSPECIFIED', 'UNSPECIFIED', '' ) ;
#52 = APPLICATION_PROTOCOL_DEFINITION ( 'international standard', 'config_control_design', 1994, #139 ) ;
#53 = PERSON ( 'UNSPECIFIED', 'UNSPECIFIED', 'UNSPECIFIED', ('UNSPECIFIED'), ('UNSPECIFIED'), ('UNSPECIFIED') ) ;
#54 = AXIS2_PLACEMENT_3D ( 'NONE', #27, #10, #93 ) ;
#55 = EDGE_CURVE ( 'NONE', #49, #49, #76, .T. ) ;
#56 = PERSON_AND_ORGANIZATION ( #53, #51 ) ;
#57 = FACE_OUTER_BOUND ( 'NONE', #91, .T. ) ;
#58 = CYLINDRICAL_SURFACE ( 'NONE', #127, 4.999999999999992006 ) ;
#59 = DIRECTION ( 'NONE',  ( -4.275831445896958607E-31, -1.000000000000000000, -1.224646799147353207E-16 ) ) ;
#60 = LOCAL_TIME ( 13, 36, 18.00000000000000000, #103 ) ;
#61 = EDGE_CURVE ( 'NONE', #128, #128, #4, .T. ) ;
#62 = PLANE ( 'NONE',  #167 ) ;
#63 = CC_DESIGN_PERSON_AND_ORGANIZATION_ASSIGNMENT ( #85, #148, ( #201 ) ) ;
#64 =( GEOMETRIC_REPRESENTATION_CONTEXT ( 3 ) GLOBAL_UNCERTAINTY_ASSIGNED_CONTEXT ( ( #185 ) ) GLOBAL_UNIT_ASSIGNED_CONTEXT ( ( #203, #15, #190 ) ) REPRESENTATION_CONTEXT ( 'NONE', 'WORKASPACE' ) );
#65 = CARTESIAN_POINT ( 'NONE',  ( 6.353976404174117669E-15, -2.228674911895110517E-16, 1.819851171331032358 ) ) ;
#66 = CARTESIAN_POINT ( 'NONE',  ( 1.222018468595096801E-13, 4.999999999999990230, 35.00000000000000000 ) ) ;
#67 = MECHANICAL_CONTEXT ( 'NONE', #139, 'mechanical' ) ;
#68 = DIRECTION ( 'NONE',  ( 1.000000000000000000, 0.0000000000000000000, 0.0000000000000000000 ) ) ;
#69 = CC_DESIGN_PERSON_AND_ORGANIZATION_ASSIGNMENT ( #173, #100, ( #84 ) ) ;
#70 = PERSON_AND_ORGANIZATION ( #53, #51 ) ;
#71 = LOCAL_TIME ( 13, 36, 18.00000000000000000, #38 ) ;
#72 = PERSON_AND_ORGANIZATION_ROLE ( 'creator' ) ;
#73 = DIRECTION ( 'NONE',  ( 3.491481338843133355E-15, -1.224646799147353207E-16, 1.000000000000000000 ) ) ;
#74 = SHAPE_DEFINITION_REPRESENTATION ( #202, #25 ) ;
#75 = DIRECTION ( 'NONE',  ( 4.275831445896959482E-31, 1.000000000000000000, 1.224646799147353207E-16 ) ) ;
#76 = CIRCLE ( 'NONE', #13, 4.000000000000001776 ) ;
#77 = ORIENTED_EDGE ( 'NONE', *, *, #149, .T. ) ;
#78 = EDGE_LOOP ( 'NONE', ( #8 ) ) ;
#79 = PLANE ( 'NONE',  #163 ) ;
#80 = ADVANCED_FACE ( 'NONE', ( #57, #142 ), #164, .T. ) ;
#81 = PERSON_AND_ORGANIZATION_ROLE ( 'creator' ) ;
#82 = CARTESIAN_POINT ( 'NONE',  ( 3.072503578181957353E-13, 4.999999999999990230, 88.00000000000000000 ) ) ;
#83 = CARTESIAN_POINT ( 'NONE',  ( 6.353976404174117669E-15, -2.228674911895110517E-16, 1.819851171331032358 ) ) ;
#84 = PRODUCT ( '43548', '43548', '', ( #67 ) ) ;
#85 = PERSON_AND_ORGANIZATION ( #53, #51 ) ;
#86 = CARTESIAN_POINT ( 'NONE',  ( 1.222018468595096801E-13, 3.749399456654634167E-32, 35.00000000000000000 ) ) ;
#87 = EDGE_LOOP ( 'NONE', ( #43 ) ) ;
#88 = CALENDAR_DATE ( 2021, 13, 10 ) ;
#89 = EDGE_LOOP ( 'NONE', ( #24 ) ) ;
#90 = DESIGN_CONTEXT ( 'detailed design', #147, 'design' ) ;
#91 = EDGE_LOOP ( 'NONE', ( #153 ) ) ;
#92 = CLOSED_SHELL ( 'NONE', ( #37, #80, #105, #26 ) ) ;
#93 = DIRECTION ( 'NONE',  ( 4.275831445896958607E-31, 1.000000000000000000, 1.224646799147353207E-16 ) ) ;
#94 = DIRECTION ( 'NONE',  ( 0.0000000000000000000, 1.000000000000000000, 0.0000000000000000000 ) ) ;
#95 = FACE_OUTER_BOUND ( 'NONE', #97, .T. ) ;
#96 = CC_DESIGN_APPROVAL ( #170, ( #201 ) ) ;
#97 = EDGE_LOOP ( 'NONE', ( #169 ) ) ;
#98 = APPLICATION_PROTOCOL_DEFINITION ( 'international standard', 'config_control_design', 1994, #147 ) ;
#99 = CIRCLE ( 'NONE', #200, 4.999999999999990230 ) ;
#100 = PERSON_AND_ORGANIZATION_ROLE ( 'design_owner' ) ;
#101 = APPROVAL ( #159, 'UNSPECIFIED' ) ;
#102 = APPROVAL_DATE_TIME ( #119, #174 ) ;
#103 = COORDINATED_UNIVERSAL_TIME_OFFSET ( 1, 0, .AHEAD. ) ;
#104 = DATE_AND_TIME ( #88, #118 ) ;
#105 = ADVANCED_FACE ( 'NONE', ( #44, #155 ), #123, .T. ) ;
#106 = ORIENTED_EDGE ( 'NONE', *, *, #7, .F. ) ;
#107 = CIRCLE ( 'NONE', #132, 4.999999999999994671 ) ;
#108 = CARTESIAN_POINT ( 'NONE',  ( 3.107418391570388560E-13, -1.089935651241144239E-14, 89.00000000000000000 ) ) ;
#109 = FACE_OUTER_BOUND ( 'NONE', #194, .T. ) ;
#110 = CARTESIAN_POINT ( 'NONE',  ( 1.222018468595096801E-13, -4.286263797015736496E-15, 35.00000000000000000 ) ) ;
#111 = MANIFOLD_SOLID_BREP ( 'Corps-Déplacer/Copier1[2]', #41 ) ;
#112 = DIRECTION ( 'NONE',  ( -3.491481338843133355E-15, 1.224646799147353207E-16, -1.000000000000000000 ) ) ;
#113 = DATE_AND_TIME ( #34, #150 ) ;
#114 = VERTEX_POINT ( 'NONE', #130 ) ;
#115 = COORDINATED_UNIVERSAL_TIME_OFFSET ( 1, 0, .AHEAD. ) ;
#116 = CIRCLE ( 'NONE', #35, 4.999999999999994671 ) ;
#117 = ADVANCED_FACE ( 'NONE', ( #95 ), #62, .T. ) ;
#118 = LOCAL_TIME ( 13, 36, 18.00000000000000000, #115 ) ;
#119 = DATE_AND_TIME ( #131, #71 ) ;
#120 = ORIENTED_EDGE ( 'NONE', *, *, #55, .F. ) ;
#121 = PLANE ( 'NONE',  #54 ) ;
#122 = CC_DESIGN_SECURITY_CLASSIFICATION ( #42, ( #201 ) ) ;
#123 = CONICAL_SURFACE ( 'NONE', #129, 4.000000000000001776, 0.7853981633974473908 ) ;
#124 = CARTESIAN_POINT ( 'NONE',  ( 0.0000000000000000000, 0.0000000000000000000, 0.0000000000000000000 ) ) ;
#125 = CARTESIAN_POINT ( 'NONE',  ( 6.353976404174120036E-15, 4.999999999999990230, 1.819851171331033024 ) ) ;
#126 = CARTESIAN_POINT ( 'NONE',  ( 0.0000000000000000000, 0.0000000000000000000, 0.0000000000000000000 ) ) ;
#127 = AXIS2_PLACEMENT_3D ( 'NONE', #124, #168, #46 ) ;
#128 = VERTEX_POINT ( 'NONE', #82 ) ;
#129 = AXIS2_PLACEMENT_3D ( 'NONE', #143, #29, #197 ) ;
#130 = CARTESIAN_POINT ( 'NONE',  ( 1.222018468595096801E-13, 4.999999999999990230, 35.00000000000000000 ) ) ;
#131 = CALENDAR_DATE ( 2021, 13, 10 ) ;
#132 = AXIS2_PLACEMENT_3D ( 'NONE', #110, #172, #14 ) ;
#133 = PERSON_AND_ORGANIZATION_ROLE ( 'classification_officer' ) ;
#134 = CARTESIAN_POINT ( 'NONE',  ( 1.222018468595096801E-13, 3.749399456654634167E-32, 35.00000000000000000 ) ) ;
#135 = DATE_TIME_ROLE ( 'classification_date' ) ;
#136 = CONICAL_SURFACE ( 'NONE', #182, 4.999999999999990230, 1.221730476396026388 ) ;
#137 = ADVANCED_FACE ( 'NONE', ( #151, #109 ), #58, .T. ) ;
#138 = EDGE_LOOP ( 'NONE', ( #106 ) ) ;
#139 = APPLICATION_CONTEXT ( 'configuration controlled 3d designs of mechanical parts and assemblies' ) ;
#140 = DIRECTION ( 'NONE',  ( -4.622231866529374805E-31, -1.000000000000000000, -1.301042606982607786E-16 ) ) ;
#141 = CC_DESIGN_APPROVAL ( #101, ( #20 ) ) ;
#142 = FACE_OUTER_BOUND ( 'NONE', #87, .T. ) ;
#143 = CARTESIAN_POINT ( 'NONE',  ( 3.107418391570388560E-13, -1.089935651241144239E-14, 89.00000000000000000 ) ) ;
#144 = CARTESIAN_POINT ( 'NONE',  ( 3.107418391570388560E-13, 3.999999999999990674, 89.00000000000000000 ) ) ;
#145 = DATE_TIME_ROLE ( 'creation_date' ) ;
#146 = FACE_OUTER_BOUND ( 'NONE', #78, .T. ) ;
#147 = APPLICATION_CONTEXT ( 'configuration controlled 3d designs of mechanical parts and assemblies' ) ;
#148 = PERSON_AND_ORGANIZATION_ROLE ( 'design_supplier' ) ;
#149 = EDGE_CURVE ( 'NONE', #114, #114, #116, .T. ) ;
#150 = LOCAL_TIME ( 13, 36, 18.00000000000000000, #48 ) ;
#151 = FACE_OUTER_BOUND ( 'NONE', #138, .T. ) ;
#152 = CALENDAR_DATE ( 2021, 13, 10 ) ;
#153 = ORIENTED_EDGE ( 'NONE', *, *, #149, .F. ) ;
#154 = ORIENTED_EDGE ( 'NONE', *, *, #162, .T. ) ;
#155 = FACE_BOUND ( 'NONE', #9, .T. ) ;
#156 = APPROVAL_PERSON_ORGANIZATION ( #175, #170, #50 ) ;
#157 = DIRECTION ( 'NONE',  ( -3.491481338843133355E-15, 1.224646799147353207E-16, -1.000000000000000000 ) ) ;
#158 = APPROVAL_DATE_TIME ( #19, #101 ) ;
#159 = APPROVAL_STATUS ( 'not_yet_approved' ) ;
#160 = APPROVAL_PERSON_ORGANIZATION ( #70, #174, #192 ) ;
#161 = CALENDAR_DATE ( 2021, 13, 10 ) ;
#162 = EDGE_CURVE ( 'NONE', #18, #18, #107, .T. ) ;
#163 = AXIS2_PLACEMENT_3D ( 'NONE', #134, #6, #171 ) ;
#164 = CYLINDRICAL_SURFACE ( 'NONE', #188, 4.999999999999997335 ) ;
#165 = AXIS2_PLACEMENT_3D ( 'NONE', #40, #196, #47 ) ;
#166 = CC_DESIGN_PERSON_AND_ORGANIZATION_ASSIGNMENT ( #17, #81, ( #20 ) ) ;
#167 = AXIS2_PLACEMENT_3D ( 'NONE', #86, #73, #59 ) ;
#168 = DIRECTION ( 'NONE',  ( -3.491481338843133355E-15, 1.224646799147353207E-16, -1.000000000000000000 ) ) ;
#169 = ORIENTED_EDGE ( 'NONE', *, *, #162, .F. ) ;
#170 = APPROVAL ( #191, 'UNSPECIFIED' ) ;
#171 = DIRECTION ( 'NONE',  ( -4.275831445896958607E-31, -1.000000000000000000, -1.224646799147353207E-16 ) ) ;
#172 = DIRECTION ( 'NONE',  ( -3.491481338843133355E-15, 1.224646799147353207E-16, -1.000000000000000000 ) ) ;
#173 = PERSON_AND_ORGANIZATION ( #53, #51 ) ;
#174 = APPROVAL ( #193, 'UNSPECIFIED' ) ;
#175 = PERSON_AND_ORGANIZATION ( #53, #51 ) ;
#176 = DIRECTION ( 'NONE',  ( 0.0000000000000000000, 0.0000000000000000000, 1.000000000000000000 ) ) ;
#177 = CC_DESIGN_DATE_AND_TIME_ASSIGNMENT ( #2, #135, ( #42 ) ) ;
#178 = MANIFOLD_SOLID_BREP ( 'Corps-Déplacer/Copier1[1]', #92 ) ;
#179 = APPROVAL_PERSON_ORGANIZATION ( #30, #101, #189 ) ;
#180 = CC_DESIGN_PERSON_AND_ORGANIZATION_ASSIGNMENT ( #36, #133, ( #42 ) ) ;
#181 = DIRECTION ( 'NONE',  ( 0.0000000000000000000, 1.000000000000000000, 0.0000000000000000000 ) ) ;
#182 = AXIS2_PLACEMENT_3D ( 'NONE', #83, #184, #140 ) ;
#183 = CC_DESIGN_APPROVAL ( #174, ( #42 ) ) ;
#184 = DIRECTION ( 'NONE',  ( 3.491481338843133355E-15, -1.224646799147353207E-16, 1.000000000000000000 ) ) ;
#185 = UNCERTAINTY_MEASURE_WITH_UNIT (LENGTH_MEASURE( 1.000000000000000082E-05 ), #203, 'distance_accuracy_value', 'NONE');
#186 = DIRECTION ( 'NONE',  ( -3.491481338843133355E-15, 1.224646799147353207E-16, -1.000000000000000000 ) ) ;
#187 = FACE_OUTER_BOUND ( 'NONE', #195, .T. ) ;
#188 = AXIS2_PLACEMENT_3D ( 'NONE', #23, #112, #75 ) ;
#189 = APPROVAL_ROLE ( '' ) ;
#190 =( NAMED_UNIT ( * ) SI_UNIT ( $, .STERADIAN. ) SOLID_ANGLE_UNIT ( ) );
#191 = APPROVAL_STATUS ( 'not_yet_approved' ) ;
#192 = APPROVAL_ROLE ( '' ) ;
#193 = APPROVAL_STATUS ( 'not_yet_approved' ) ;
#194 = EDGE_LOOP ( 'NONE', ( #154 ) ) ;
#195 = EDGE_LOOP ( 'NONE', ( #120 ) ) ;
#196 = DIRECTION ( 'NONE',  ( -3.491481338843133355E-15, 1.224646799147353207E-16, -1.000000000000000000 ) ) ;
#197 = DIRECTION ( 'NONE',  ( 0.0000000000000000000, 1.000000000000000000, 0.0000000000000000000 ) ) ;
#198 = CC_DESIGN_PERSON_AND_ORGANIZATION_ASSIGNMENT ( #56, #72, ( #201 ) ) ;
#199 = VERTEX_POINT ( 'NONE', #125 ) ;
#200 = AXIS2_PLACEMENT_3D ( 'NONE', #65, #32, #21 ) ;
#201 = PRODUCT_DEFINITION_FORMATION_WITH_SPECIFIED_SOURCE ( 'ANY', '', #84, .NOT_KNOWN. ) ;
#202 = PRODUCT_DEFINITION_SHAPE ( 'NONE', 'NONE',  #20 ) ;
#203 =( LENGTH_UNIT ( ) NAMED_UNIT ( * ) SI_UNIT ( .MILLI., .METRE. ) );
ENDSEC;
END-ISO-10303-21;
