ISO-10303-21;
HEADER;
FILE_DESCRIPTION (( 'STEP AP203' ),
    '1' );
FILE_NAME ('43547.step',
    '2021-10-13T11:36:17',
    ( '' ),
    ( '' ),
    'SwSTEP 2.0',
    'SolidWorks 2019',
    '' );
FILE_SCHEMA (( 'CONFIG_CONTROL_DESIGN' ));
ENDSEC;

DATA;
#1 = FACE_OUTER_BOUND ( 'NONE', #139, .T. ) ;
#2 = CC_DESIGN_PERSON_AND_ORGANIZATION_ASSIGNMENT ( #66, #63, ( #92 ) ) ;
#3 = APPLICATION_PROTOCOL_DEFINITION ( 'international standard', 'config_control_design', 1994, #29 ) ;
#4 = CARTESIAN_POINT ( 'NONE',  ( 3.072503578181957353E-13, 4.999999999999990230, 88.00000000000000000 ) ) ;
#5 = EDGE_LOOP ( 'NONE', ( #216 ) ) ;
#6 = EDGE_LOOP ( 'NONE', ( #65 ) ) ;
#7 = VERTEX_POINT ( 'NONE', #154 ) ;
#8 = PERSON_AND_ORGANIZATION_ROLE ( 'creator' ) ;
#9 = DIRECTION ( 'NONE',  ( -3.491481338843133355E-15, 1.224646799147353207E-16, -1.000000000000000000 ) ) ;
#10 = AXIS2_PLACEMENT_3D ( 'NONE', #205, #110, #50 ) ;
#11 = CARTESIAN_POINT ( 'NONE',  ( 0.0000000000000000000, 0.0000000000000000000, 0.0000000000000000000 ) ) ;
#12 = EDGE_CURVE ( 'NONE', #210, #210, #37, .T. ) ;
#13 = CARTESIAN_POINT ( 'NONE',  ( 6.226896876090654675E-15, -2.184101413657215387E-16, 1.783454147904417475 ) ) ;
#14 = CLOSED_SHELL ( 'NONE', ( #180, #44, #208, #171, #121, #177 ) ) ;
#15 = DIRECTION ( 'NONE',  ( 3.491481338843133355E-15, -1.224646799147353207E-16, 1.000000000000000000 ) ) ;
#16 = CARTESIAN_POINT ( 'NONE',  ( 1.222018468595096801E-13, -4.900000000000021672, 35.00000000000000000 ) ) ;
#17 = FACE_OUTER_BOUND ( 'NONE', #212, .T. ) ;
#18 = APPLICATION_PROTOCOL_DEFINITION ( 'international standard', 'config_control_design', 1994, #113 ) ;
#19 = CONICAL_SURFACE ( 'NONE', #103, 4.000000000000001776, 0.7853981633974473908 ) ;
#20 = APPROVAL_PERSON_ORGANIZATION ( #144, #152, #31 ) ;
#21 = ORIENTED_EDGE ( 'NONE', *, *, #201, .T. ) ;
#22 = DATE_AND_TIME ( #195, #166 ) ;
#23 = CARTESIAN_POINT ( 'NONE',  ( 1.640996229256272803E-13, 4.899999999999994138, 47.00000000000000000 ) ) ;
#24 = ORIENTED_EDGE ( 'NONE', *, *, #196, .F. ) ;
#25 = AXIS2_PLACEMENT_3D ( 'NONE', #173, #97, #206 ) ;
#26 = EDGE_LOOP ( 'NONE', ( #61 ) ) ;
#27 = APPROVAL_DATE_TIME ( #128, #186 ) ;
#28 = AXIS2_PLACEMENT_3D ( 'NONE', #127, #51, #168 ) ;
#29 = APPLICATION_CONTEXT ( 'configuration controlled 3d designs of mechanical parts and assemblies' ) ;
#30 = FACE_OUTER_BOUND ( 'NONE', #5, .T. ) ;
#31 = APPROVAL_ROLE ( '' ) ;
#32 = FACE_OUTER_BOUND ( 'NONE', #174, .T. ) ;
#33 = EDGE_CURVE ( 'NONE', #228, #228, #75, .T. ) ;
#34 = DATE_TIME_ROLE ( 'classification_date' ) ;
#35 = DIRECTION ( 'NONE',  ( 3.491481338843133355E-15, -1.224646799147353207E-16, 1.000000000000000000 ) ) ;
#36 = FACE_OUTER_BOUND ( 'NONE', #80, .T. ) ;
#37 = CIRCLE ( 'NONE', #42, 4.999999999999997335 ) ;
#38 = DIRECTION ( 'NONE',  ( 0.0000000000000000000, -1.000000000000000000, 0.0000000000000000000 ) ) ;
#39 = PRODUCT_RELATED_PRODUCT_CATEGORY ( 'detail', '', ( #72 ) ) ;
#40 = AXIS2_PLACEMENT_3D ( 'NONE', #53, #15, #148 ) ;
#41 = DESIGN_CONTEXT ( 'detailed design', #113, 'design' ) ;
#42 = AXIS2_PLACEMENT_3D ( 'NONE', #204, #68, #67 ) ;
#43 = PERSON_AND_ORGANIZATION ( #95, #217 ) ;
#44 = ADVANCED_FACE ( 'NONE', ( #167, #219 ), #19, .T. ) ;
#45 = APPROVAL_DATE_TIME ( #209, #207 ) ;
#46 = CARTESIAN_POINT ( 'NONE',  ( 0.0000000000000000000, 0.0000000000000000000, 0.0000000000000000000 ) ) ;
#47 = CALENDAR_DATE ( 2021, 13, 10 ) ;
#48 = COORDINATED_UNIVERSAL_TIME_OFFSET ( 1, 0, .AHEAD. ) ;
#49 = CIRCLE ( 'NONE', #161, 4.900000000000006573 ) ;
#50 = DIRECTION ( 'NONE',  ( -4.622231866529374805E-31, -1.000000000000000000, -1.301042606982607786E-16 ) ) ;
#51 = DIRECTION ( 'NONE',  ( -3.491481338843133355E-15, 4.327174794786742882E-16, -1.000000000000000000 ) ) ;
#52 = ADVANCED_FACE ( 'NONE', ( #32 ), #203, .T. ) ;
#53 = CARTESIAN_POINT ( 'NONE',  ( 1.222018468595096801E-13, 3.749399456654634167E-32, 35.00000000000000000 ) ) ;
#54 = DIRECTION ( 'NONE',  ( 0.0000000000000000000, 1.000000000000000000, 0.0000000000000000000 ) ) ;
#55 = PRODUCT_DEFINITION ( 'UNKNOWN', '', #98, #41 ) ;
#56 = FACE_OUTER_BOUND ( 'NONE', #199, .T. ) ;
#57 = DIRECTION ( 'NONE',  ( 1.510825004591028030E-30, 1.000000000000000000, 4.327174794786743375E-16 ) ) ;
#58 = LOCAL_TIME ( 13, 36, 17.00000000000000000, #229 ) ;
#59 = CALENDAR_DATE ( 2021, 13, 10 ) ;
#60 = VERTEX_POINT ( 'NONE', #118 ) ;
#61 = ORIENTED_EDGE ( 'NONE', *, *, #12, .F. ) ;
#62 = VERTEX_POINT ( 'NONE', #16 ) ;
#63 = PERSON_AND_ORGANIZATION_ROLE ( 'classification_officer' ) ;
#64 = ORIENTED_EDGE ( 'NONE', *, *, #169, .T. ) ;
#65 = ORIENTED_EDGE ( 'NONE', *, *, #149, .T. ) ;
#66 = PERSON_AND_ORGANIZATION ( #95, #217 ) ;
#67 = DIRECTION ( 'NONE',  ( 0.0000000000000000000, 1.000000000000000000, 0.0000000000000000000 ) ) ;
#68 = DIRECTION ( 'NONE',  ( 3.491481338843133355E-15, -4.327174794786742882E-16, 1.000000000000000000 ) ) ;
#69 = DIRECTION ( 'NONE',  ( -4.716563129111591448E-31, -1.000000000000000000, -1.327594496921023991E-16 ) ) ;
#70 = EDGE_CURVE ( 'NONE', #62, #62, #137, .T. ) ;
#71 = PLANE ( 'NONE',  #25 ) ;
#72 = PRODUCT ( '43547', '43547', '', ( #191 ) ) ;
#73 = CLOSED_SHELL ( 'NONE', ( #52, #224, #94 ) ) ;
#74 = PLANE ( 'NONE',  #40 ) ;
#75 = CIRCLE ( 'NONE', #28, 4.900000000000013678 ) ;
#76 = APPROVAL_STATUS ( 'not_yet_approved' ) ;
#77 = CYLINDRICAL_SURFACE ( 'NONE', #78, 4.900000000000006573 ) ;
#78 = AXIS2_PLACEMENT_3D ( 'NONE', #46, #233, #57 ) ;
#79 = PERSON_AND_ORGANIZATION ( #95, #217 ) ;
#80 = EDGE_LOOP ( 'NONE', ( #156 ) ) ;
#81 =( GEOMETRIC_REPRESENTATION_CONTEXT ( 3 ) GLOBAL_UNCERTAINTY_ASSIGNED_CONTEXT ( ( #214 ) ) GLOBAL_UNIT_ASSIGNED_CONTEXT ( ( #115, #138, #101 ) ) REPRESENTATION_CONTEXT ( 'NONE', 'WORKASPACE' ) );
#82 = CC_DESIGN_PERSON_AND_ORGANIZATION_ASSIGNMENT ( #193, #175, ( #72 ) ) ;
#83 = ORIENTED_EDGE ( 'NONE', *, *, #70, .F. ) ;
#84 = MANIFOLD_SOLID_BREP ( 'Corps-Déplacer/Copier1[1]', #14 ) ;
#85 = EDGE_LOOP ( 'NONE', ( #235 ) ) ;
#86 = DIRECTION ( 'NONE',  ( -3.491481338843133355E-15, 1.224646799147353207E-16, -1.000000000000000000 ) ) ;
#87 = CIRCLE ( 'NONE', #157, 5.000000000000000888 ) ;
#88 = DIRECTION ( 'NONE',  ( -3.491481338843133355E-15, 4.327174794786742882E-16, -1.000000000000000000 ) ) ;
#89 = DIRECTION ( 'NONE',  ( -3.491481338843133355E-15, 1.224646799147353207E-16, -1.000000000000000000 ) ) ;
#90 = DIRECTION ( 'NONE',  ( -3.491481338843133355E-15, 1.224646799147353207E-16, -1.000000000000000000 ) ) ;
#91 = AXIS2_PLACEMENT_3D ( 'NONE', #109, #200, #187 ) ;
#92 = SECURITY_CLASSIFICATION ( '', '', #181 ) ;
#93 = CARTESIAN_POINT ( 'NONE',  ( 1.640996229256272803E-13, -1.994931997373328159E-14, 47.00000000000000000 ) ) ;
#94 = ADVANCED_FACE ( 'NONE', ( #56 ), #131, .T. ) ;
#95 = PERSON ( 'UNSPECIFIED', 'UNSPECIFIED', 'UNSPECIFIED', ('UNSPECIFIED'), ('UNSPECIFIED'), ('UNSPECIFIED') ) ;
#96 = AXIS2_PLACEMENT_3D ( 'NONE', #126, #35, #185 ) ;
#97 = DIRECTION ( 'NONE',  ( -3.491481338843133355E-15, 1.224646799147353207E-16, -1.000000000000000000 ) ) ;
#98 = PRODUCT_DEFINITION_FORMATION_WITH_SPECIFIED_SOURCE ( 'ANY', '', #72, .NOT_KNOWN. ) ;
#99 = ORIENTED_EDGE ( 'NONE', *, *, #12, .T. ) ;
#100 = DATE_TIME_ROLE ( 'creation_date' ) ;
#101 =( NAMED_UNIT ( * ) SI_UNIT ( $, .STERADIAN. ) SOLID_ANGLE_UNIT ( ) );
#102 = EDGE_LOOP ( 'NONE', ( #83 ) ) ;
#103 = AXIS2_PLACEMENT_3D ( 'NONE', #225, #163, #54 ) ;
#104 = AXIS2_PLACEMENT_3D ( 'NONE', #211, #226, #134 ) ;
#105 = CC_DESIGN_PERSON_AND_ORGANIZATION_ASSIGNMENT ( #160, #8, ( #98 ) ) ;
#106 = PERSON_AND_ORGANIZATION_ROLE ( 'design_supplier' ) ;
#107 = FACE_OUTER_BOUND ( 'NONE', #26, .T. ) ;
#108 = DIRECTION ( 'NONE',  ( -3.491481338843133355E-15, 4.327174794786742882E-16, -1.000000000000000000 ) ) ;
#109 = CARTESIAN_POINT ( 'NONE',  ( 1.222018468595096801E-13, -1.514511178175360324E-14, 35.00000000000000000 ) ) ;
#110 = DIRECTION ( 'NONE',  ( 3.491481338843133355E-15, -1.224646799147353207E-16, 1.000000000000000000 ) ) ;
#111 = CYLINDRICAL_SURFACE ( 'NONE', #153, 4.900000000000006573 ) ;
#112 = AXIS2_PLACEMENT_3D ( 'NONE', #189, #86, #38 ) ;
#113 = APPLICATION_CONTEXT ( 'configuration controlled 3d designs of mechanical parts and assemblies' ) ;
#114 = LOCAL_TIME ( 13, 36, 17.00000000000000000, #142 ) ;
#115 =( LENGTH_UNIT ( ) NAMED_UNIT ( * ) SI_UNIT ( .MILLI., .METRE. ) );
#116 = CIRCLE ( 'NONE', #165, 4.000000000000001776 ) ;
#117 = CC_DESIGN_APPROVAL ( #152, ( #92 ) ) ;
#118 = CARTESIAN_POINT ( 'NONE',  ( 3.107418391570388560E-13, 3.999999999999990674, 89.00000000000000000 ) ) ;
#119 = ORIENTED_EDGE ( 'NONE', *, *, #196, .T. ) ;
#120 = COORDINATED_UNIVERSAL_TIME_OFFSET ( 1, 0, .AHEAD. ) ;
#121 = ADVANCED_FACE ( 'NONE', ( #30, #107 ), #202, .F. ) ;
#122 = APPROVAL_ROLE ( '' ) ;
#123 = COORDINATED_UNIVERSAL_TIME_OFFSET ( 1, 0, .AHEAD. ) ;
#124 = CC_DESIGN_DATE_AND_TIME_ASSIGNMENT ( #22, #100, ( #55 ) ) ;
#125 = APPROVAL_DATE_TIME ( #239, #152 ) ;
#126 = CARTESIAN_POINT ( 'NONE',  ( 1.222018468595096801E-13, 3.749399456654634167E-32, 35.00000000000000000 ) ) ;
#127 = CARTESIAN_POINT ( 'NONE',  ( 1.640996229256272803E-13, -2.033772153549769155E-14, 47.00000000000000000 ) ) ;
#128 = DATE_AND_TIME ( #47, #133 ) ;
#129 = CYLINDRICAL_SURFACE ( 'NONE', #188, 4.999999999999997335 ) ;
#130 = DIRECTION ( 'NONE',  ( 0.0000000000000000000, 1.000000000000000000, 0.0000000000000000000 ) ) ;
#131 = PLANE ( 'NONE',  #96 ) ;
#132 = CARTESIAN_POINT ( 'NONE',  ( 6.226896876090653097E-15, -4.900000000000006573, 1.783454147904416809 ) ) ;
#133 = LOCAL_TIME ( 13, 36, 17.00000000000000000, #48 ) ;
#134 = DIRECTION ( 'NONE',  ( 1.000000000000000000, 0.0000000000000000000, 0.0000000000000000000 ) ) ;
#135 = VERTEX_POINT ( 'NONE', #4 ) ;
#136 = EDGE_LOOP ( 'NONE', ( #237 ) ) ;
#137 = CIRCLE ( 'NONE', #91, 4.900000000000006573 ) ;
#138 =( NAMED_UNIT ( * ) PLANE_ANGLE_UNIT ( ) SI_UNIT ( $, .RADIAN. ) );
#139 = EDGE_LOOP ( 'NONE', ( #99 ) ) ;
#140 = PERSON_AND_ORGANIZATION ( #95, #217 ) ;
#141 = CC_DESIGN_PERSON_AND_ORGANIZATION_ASSIGNMENT ( #43, #231, ( #55 ) ) ;
#142 = COORDINATED_UNIVERSAL_TIME_OFFSET ( 1, 0, .AHEAD. ) ;
#143 = EDGE_LOOP ( 'NONE', ( #21 ) ) ;
#144 = PERSON_AND_ORGANIZATION ( #95, #217 ) ;
#145 = CARTESIAN_POINT ( 'NONE',  ( 3.107418391570388560E-13, -1.089935651241144239E-14, 89.00000000000000000 ) ) ;
#146 = AXIS2_PLACEMENT_3D ( 'NONE', #93, #108, #179 ) ;
#147 = CARTESIAN_POINT ( 'NONE',  ( 3.072503578181957353E-13, -1.077689183249670724E-14, 88.00000000000000000 ) ) ;
#148 = DIRECTION ( 'NONE',  ( -4.275831445896958607E-31, -1.000000000000000000, -1.224646799147353207E-16 ) ) ;
#149 = EDGE_CURVE ( 'NONE', #7, #7, #192, .T. ) ;
#150 = APPROVAL_ROLE ( '' ) ;
#151 = CC_DESIGN_APPROVAL ( #207, ( #55 ) ) ;
#152 = APPROVAL ( #158, 'UNSPECIFIED' ) ;
#153 = AXIS2_PLACEMENT_3D ( 'NONE', #11, #88, #162 ) ;
#154 = CARTESIAN_POINT ( 'NONE',  ( 1.222018468595096801E-13, -4.900000000000021672, 35.00000000000000000 ) ) ;
#155 = FACE_OUTER_BOUND ( 'NONE', #6, .T. ) ;
#156 = ORIENTED_EDGE ( 'NONE', *, *, #169, .F. ) ;
#157 = AXIS2_PLACEMENT_3D ( 'NONE', #147, #90, #130 ) ;
#158 = APPROVAL_STATUS ( 'not_yet_approved' ) ;
#159 = EDGE_LOOP ( 'NONE', ( #176 ) ) ;
#160 = PERSON_AND_ORGANIZATION ( #95, #217 ) ;
#161 = AXIS2_PLACEMENT_3D ( 'NONE', #13, #89, #69 ) ;
#162 = DIRECTION ( 'NONE',  ( 1.510825004591028030E-30, 1.000000000000000000, 4.327174794786743375E-16 ) ) ;
#163 = DIRECTION ( 'NONE',  ( -3.491481338843133355E-15, 1.224646799147353207E-16, -1.000000000000000000 ) ) ;
#164 = MANIFOLD_SOLID_BREP ( 'Corps-Déplacer/Copier1[2]', #73 ) ;
#165 = AXIS2_PLACEMENT_3D ( 'NONE', #145, #9, #240 ) ;
#166 = LOCAL_TIME ( 13, 36, 17.00000000000000000, #120 ) ;
#167 = FACE_OUTER_BOUND ( 'NONE', #159, .T. ) ;
#168 = DIRECTION ( 'NONE',  ( 0.0000000000000000000, 1.000000000000000000, 0.0000000000000000000 ) ) ;
#169 = EDGE_CURVE ( 'NONE', #60, #60, #116, .T. ) ;
#170 = PRODUCT_DEFINITION_SHAPE ( 'NONE', 'NONE',  #55 ) ;
#171 = ADVANCED_FACE ( 'NONE', ( #182, #221 ), #111, .T. ) ;
#172 = CARTESIAN_POINT ( 'NONE',  ( 1.656215243575546847E-13, 4.999999999999977796, 47.43588989435402681 ) ) ;
#173 = CARTESIAN_POINT ( 'NONE',  ( 3.107418391570388560E-13, 2.999519565323699889E-32, 89.00000000000000000 ) ) ;
#174 = EDGE_LOOP ( 'NONE', ( #119 ) ) ;
#175 = PERSON_AND_ORGANIZATION_ROLE ( 'design_owner' ) ;
#176 = ORIENTED_EDGE ( 'NONE', *, *, #201, .F. ) ;
#177 = ADVANCED_FACE ( 'NONE', ( #241 ), #74, .F. ) ;
#178 = PERSON_AND_ORGANIZATION ( #95, #217 ) ;
#179 = DIRECTION ( 'NONE',  ( 1.510825004591027679E-30, 1.000000000000000000, 4.327174794786742882E-16 ) ) ;
#180 = ADVANCED_FACE ( 'NONE', ( #1, #243 ), #129, .T. ) ;
#181 = SECURITY_CLASSIFICATION_LEVEL ( 'unclassified' ) ;
#182 = FACE_OUTER_BOUND ( 'NONE', #136, .T. ) ;
#183 = ADVANCED_BREP_SHAPE_REPRESENTATION ( '43547', ( #84, #164, #104 ), #81 ) ;
#184 = DATE_AND_TIME ( #215, #114 ) ;
#185 = DIRECTION ( 'NONE',  ( -4.275831445896958607E-31, -1.000000000000000000, -1.224646799147353207E-16 ) ) ;
#186 = APPROVAL ( #220, 'UNSPECIFIED' ) ;
#187 = DIRECTION ( 'NONE',  ( 0.0000000000000000000, -1.000000000000000000, 0.0000000000000000000 ) ) ;
#188 = AXIS2_PLACEMENT_3D ( 'NONE', #223, #218, #242 ) ;
#189 = CARTESIAN_POINT ( 'NONE',  ( 1.222018468595096801E-13, -1.514511178175360324E-14, 35.00000000000000000 ) ) ;
#190 = VERTEX_POINT ( 'NONE', #132 ) ;
#191 = MECHANICAL_CONTEXT ( 'NONE', #29, 'mechanical' ) ;
#192 = CIRCLE ( 'NONE', #112, 4.900000000000006573 ) ;
#193 = PERSON_AND_ORGANIZATION ( #95, #217 ) ;
#194 = ORIENTED_EDGE ( 'NONE', *, *, #149, .F. ) ;
#195 = CALENDAR_DATE ( 2021, 13, 10 ) ;
#196 = EDGE_CURVE ( 'NONE', #190, #190, #49, .T. ) ;
#197 = APPROVAL_PERSON_ORGANIZATION ( #140, #186, #122 ) ;
#198 = CALENDAR_DATE ( 2021, 13, 10 ) ;
#199 = EDGE_LOOP ( 'NONE', ( #194 ) ) ;
#200 = DIRECTION ( 'NONE',  ( -3.491481338843133355E-15, 1.224646799147353207E-16, -1.000000000000000000 ) ) ;
#201 = EDGE_CURVE ( 'NONE', #135, #135, #87, .T. ) ;
#202 = TOROIDAL_SURFACE ( 'NONE', #146, 5.900000000000013678, 0.9999999999999995559 ) ;
#203 = CONICAL_SURFACE ( 'NONE', #10, 4.999999999999990230, 1.221730476396026388 ) ;
#204 = CARTESIAN_POINT ( 'NONE',  ( 1.656215243575546847E-13, -2.013793715014838210E-14, 47.43588989435402681 ) ) ;
#205 = CARTESIAN_POINT ( 'NONE',  ( 6.353976404174117669E-15, -2.228674911895110517E-16, 1.819851171331032358 ) ) ;
#206 = DIRECTION ( 'NONE',  ( 4.275831445896958607E-31, 1.000000000000000000, 1.224646799147353207E-16 ) ) ;
#207 = APPROVAL ( #76, 'UNSPECIFIED' ) ;
#208 = ADVANCED_FACE ( 'NONE', ( #36 ), #71, .F. ) ;
#209 = DATE_AND_TIME ( #59, #58 ) ;
#210 = VERTEX_POINT ( 'NONE', #172 ) ;
#211 = CARTESIAN_POINT ( 'NONE',  ( 0.0000000000000000000, 0.0000000000000000000, 0.0000000000000000000 ) ) ;
#212 = EDGE_LOOP ( 'NONE', ( #24 ) ) ;
#213 = SHAPE_DEFINITION_REPRESENTATION ( #170, #183 ) ;
#214 = UNCERTAINTY_MEASURE_WITH_UNIT (LENGTH_MEASURE( 1.000000000000000082E-05 ), #115, 'distance_accuracy_value', 'NONE');
#215 = CALENDAR_DATE ( 2021, 13, 10 ) ;
#216 = ORIENTED_EDGE ( 'NONE', *, *, #33, .F. ) ;
#217 = ORGANIZATION ( 'UNSPECIFIED', 'UNSPECIFIED', '' ) ;
#218 = DIRECTION ( 'NONE',  ( -3.491481338843133355E-15, 1.224646799147353207E-16, -1.000000000000000000 ) ) ;
#219 = FACE_BOUND ( 'NONE', #232, .T. ) ;
#220 = APPROVAL_STATUS ( 'not_yet_approved' ) ;
#221 = FACE_OUTER_BOUND ( 'NONE', #102, .T. ) ;
#222 = CC_DESIGN_APPROVAL ( #186, ( #98 ) ) ;
#223 = CARTESIAN_POINT ( 'NONE',  ( 0.0000000000000000000, 0.0000000000000000000, 0.0000000000000000000 ) ) ;
#224 = ADVANCED_FACE ( 'NONE', ( #155, #17 ), #77, .T. ) ;
#225 = CARTESIAN_POINT ( 'NONE',  ( 3.107418391570388560E-13, -1.089935651241144239E-14, 89.00000000000000000 ) ) ;
#226 = DIRECTION ( 'NONE',  ( 0.0000000000000000000, 0.0000000000000000000, 1.000000000000000000 ) ) ;
#227 = CC_DESIGN_SECURITY_CLASSIFICATION ( #92, ( #98 ) ) ;
#228 = VERTEX_POINT ( 'NONE', #23 ) ;
#229 = COORDINATED_UNIVERSAL_TIME_OFFSET ( 1, 0, .AHEAD. ) ;
#230 = LOCAL_TIME ( 13, 36, 17.00000000000000000, #123 ) ;
#231 = PERSON_AND_ORGANIZATION_ROLE ( 'creator' ) ;
#232 = EDGE_LOOP ( 'NONE', ( #64 ) ) ;
#233 = DIRECTION ( 'NONE',  ( -3.491481338843133355E-15, 4.327174794786742882E-16, -1.000000000000000000 ) ) ;
#234 = CC_DESIGN_DATE_AND_TIME_ASSIGNMENT ( #184, #34, ( #92 ) ) ;
#235 = ORIENTED_EDGE ( 'NONE', *, *, #70, .T. ) ;
#236 = CC_DESIGN_PERSON_AND_ORGANIZATION_ASSIGNMENT ( #178, #106, ( #98 ) ) ;
#237 = ORIENTED_EDGE ( 'NONE', *, *, #33, .T. ) ;
#238 = APPROVAL_PERSON_ORGANIZATION ( #79, #207, #150 ) ;
#239 = DATE_AND_TIME ( #198, #230 ) ;
#240 = DIRECTION ( 'NONE',  ( 0.0000000000000000000, 1.000000000000000000, 0.0000000000000000000 ) ) ;
#241 = FACE_OUTER_BOUND ( 'NONE', #85, .T. ) ;
#242 = DIRECTION ( 'NONE',  ( 4.275831445896959482E-31, 1.000000000000000000, 1.224646799147353207E-16 ) ) ;
#243 = FACE_OUTER_BOUND ( 'NONE', #143, .T. ) ;
ENDSEC;
END-ISO-10303-21;
