ISO-10303-21;
HEADER;
FILE_DESCRIPTION (( 'STEP AP203' ),
    '1' );
FILE_NAME ('43546.step',
    '2021-10-13T11:36:16',
    ( '' ),
    ( '' ),
    'SwSTEP 2.0',
    'SolidWorks 2019',
    '' );
FILE_SCHEMA (( 'CONFIG_CONTROL_DESIGN' ));
ENDSEC;

DATA;
#1 = ADVANCED_FACE ( 'NONE', ( #31 ), #231, .T. ) ;
#2 = AXIS2_PLACEMENT_3D ( 'NONE', #221, #134, #216 ) ;
#3 = EDGE_LOOP ( 'NONE', ( #38 ) ) ;
#4 = ADVANCED_FACE ( 'NONE', ( #145, #24 ), #105, .T. ) ;
#5 = COORDINATED_UNIVERSAL_TIME_OFFSET ( 1, 0, .AHEAD. ) ;
#6 = MANIFOLD_SOLID_BREP ( 'Corps-Déplacer/Copier1[1]', #157 ) ;
#7 = CC_DESIGN_DATE_AND_TIME_ASSIGNMENT ( #143, #185, ( #17 ) ) ;
#8 = PLANE ( 'NONE',  #109 ) ;
#9 = EDGE_LOOP ( 'NONE', ( #54 ) ) ;
#10 = DIRECTION ( 'NONE',  ( 0.0000000000000000000, 1.000000000000000000, 0.0000000000000000000 ) ) ;
#11 = CLOSED_SHELL ( 'NONE', ( #176, #242, #1 ) ) ;
#12 = EDGE_CURVE ( 'NONE', #177, #177, #16, .T. ) ;
#13 = PRODUCT_DEFINITION_SHAPE ( 'NONE', 'NONE',  #103 ) ;
#14 = FACE_OUTER_BOUND ( 'NONE', #64, .T. ) ;
#15 = VERTEX_POINT ( 'NONE', #236 ) ;
#16 = CIRCLE ( 'NONE', #189, 4.883974596215576724 ) ;
#17 = SECURITY_CLASSIFICATION ( '', '', #98 ) ;
#18 = ORIENTED_EDGE ( 'NONE', *, *, #84, .T. ) ;
#19 = DIRECTION ( 'NONE',  ( -3.491481338843133355E-15, 4.327174794786742882E-16, -1.000000000000000000 ) ) ;
#20 = CARTESIAN_POINT ( 'NONE',  ( 1.222018468595096801E-13, -1.514511178175360324E-14, 35.00000000000000000 ) ) ;
#21 = CALENDAR_DATE ( 2021, 13, 10 ) ;
#22 = ORIENTED_EDGE ( 'NONE', *, *, #84, .F. ) ;
#23 = PERSON_AND_ORGANIZATION ( #152, #202 ) ;
#24 = FACE_OUTER_BOUND ( 'NONE', #48, .T. ) ;
#25 = APPROVAL_DATE_TIME ( #225, #125 ) ;
#26 = CIRCLE ( 'NONE', #171, 4.999999999999997335 ) ;
#27 = PERSON_AND_ORGANIZATION ( #152, #202 ) ;
#28 = ORIENTED_EDGE ( 'NONE', *, *, #170, .T. ) ;
#29 = LOCAL_TIME ( 13, 36, 16.00000000000000000, #262 ) ;
#30 = AXIS2_PLACEMENT_3D ( 'NONE', #117, #35, #258 ) ;
#31 = FACE_OUTER_BOUND ( 'NONE', #191, .T. ) ;
#32 = DIRECTION ( 'NONE',  ( 0.0000000000000000000, 1.000000000000000000, 0.0000000000000000000 ) ) ;
#33 = ADVANCED_FACE ( 'NONE', ( #172 ), #87, .F. ) ;
#34 = DIRECTION ( 'NONE',  ( 1.510825004591027855E-30, 1.000000000000000000, 4.327174794786742389E-16 ) ) ;
#35 = DIRECTION ( 'NONE',  ( -3.491481338843133355E-15, 1.224646799147353207E-16, -1.000000000000000000 ) ) ;
#36 = DIRECTION ( 'NONE',  ( 0.0000000000000000000, 1.000000000000000000, 0.0000000000000000000 ) ) ;
#37 =( NAMED_UNIT ( * ) SI_UNIT ( $, .STERADIAN. ) SOLID_ANGLE_UNIT ( ) );
#38 = ORIENTED_EDGE ( 'NONE', *, *, #193, .T. ) ;
#39 = DIRECTION ( 'NONE',  ( -3.491481338843133355E-15, 1.224646799147353207E-16, -1.000000000000000000 ) ) ;
#40 = DIRECTION ( 'NONE',  ( 0.0000000000000000000, -1.000000000000000000, 0.0000000000000000000 ) ) ;
#41 = COORDINATED_UNIVERSAL_TIME_OFFSET ( 1, 0, .AHEAD. ) ;
#42 = ORIENTED_EDGE ( 'NONE', *, *, #160, .T. ) ;
#43 = PERSON_AND_ORGANIZATION_ROLE ( 'design_supplier' ) ;
#44 = CARTESIAN_POINT ( 'NONE',  ( 3.072503578181957353E-13, -1.077689183249670724E-14, 88.00000000000000000 ) ) ;
#45 = PERSON_AND_ORGANIZATION_ROLE ( 'classification_officer' ) ;
#46 = EDGE_LOOP ( 'NONE', ( #181 ) ) ;
#47 = CALENDAR_DATE ( 2021, 13, 10 ) ;
#48 = EDGE_LOOP ( 'NONE', ( #101 ) ) ;
#49 = APPROVAL_PERSON_ORGANIZATION ( #81, #71, #80 ) ;
#50 = CARTESIAN_POINT ( 'NONE',  ( 1.665470182988972527E-13, -5.000000000000018652, 47.70096189432330647 ) ) ;
#51 = CARTESIAN_POINT ( 'NONE',  ( 0.0000000000000000000, 0.0000000000000000000, 0.0000000000000000000 ) ) ;
#52 = CONICAL_SURFACE ( 'NONE', #85, 4.000000000000001776, 0.7853981633974473908 ) ;
#53 = DIRECTION ( 'NONE',  ( -4.622231866529374805E-31, -1.000000000000000000, -1.301042606982607786E-16 ) ) ;
#54 = ORIENTED_EDGE ( 'NONE', *, *, #131, .F. ) ;
#55 = AXIS2_PLACEMENT_3D ( 'NONE', #89, #108, #34 ) ;
#56 = CC_DESIGN_APPROVAL ( #205, ( #103 ) ) ;
#57 = CARTESIAN_POINT ( 'NONE',  ( 1.222018468595096801E-13, 3.749399456654634167E-32, 35.00000000000000000 ) ) ;
#58 = ADVANCED_FACE ( 'NONE', ( #214, #213 ), #52, .T. ) ;
#59 = APPLICATION_PROTOCOL_DEFINITION ( 'international standard', 'config_control_design', 1994, #263 ) ;
#60 = ORIENTED_EDGE ( 'NONE', *, *, #193, .F. ) ;
#61 = APPROVAL_DATE_TIME ( #248, #205 ) ;
#62 = ADVANCED_FACE ( 'NONE', ( #254, #148 ), #215, .F. ) ;
#63 = DESIGN_CONTEXT ( 'detailed design', #263, 'design' ) ;
#64 = EDGE_LOOP ( 'NONE', ( #119 ) ) ;
#65 = PRODUCT_RELATED_PRODUCT_CATEGORY ( 'detail', '', ( #250 ) ) ;
#66 = AXIS2_PLACEMENT_3D ( 'NONE', #149, #116, #156 ) ;
#67 = ORIENTED_EDGE ( 'NONE', *, *, #170, .F. ) ;
#68 = AXIS2_PLACEMENT_3D ( 'NONE', #51, #19, #95 ) ;
#69 = DIRECTION ( 'NONE',  ( -3.491481338843133355E-15, 4.327174794786742882E-16, -1.000000000000000000 ) ) ;
#70 = VERTEX_POINT ( 'NONE', #218 ) ;
#71 = APPROVAL ( #207, 'UNSPECIFIED' ) ;
#72 = AXIS2_PLACEMENT_3D ( 'NONE', #229, #76, #259 ) ;
#73 = VERTEX_POINT ( 'NONE', #132 ) ;
#74 = CARTESIAN_POINT ( 'NONE',  ( 1.640996229256272803E-13, -2.033772153549769155E-14, 47.00000000000000000 ) ) ;
#75 = ADVANCED_FACE ( 'NONE', ( #14 ), #8, .F. ) ;
#76 = DIRECTION ( 'NONE',  ( -3.491481338843133355E-15, 1.224646799147353207E-16, -1.000000000000000000 ) ) ;
#77 = AXIS2_PLACEMENT_3D ( 'NONE', #74, #217, #36 ) ;
#78 = PERSON_AND_ORGANIZATION ( #152, #202 ) ;
#79 = CALENDAR_DATE ( 2021, 13, 10 ) ;
#80 = APPROVAL_ROLE ( '' ) ;
#81 = PERSON_AND_ORGANIZATION ( #152, #202 ) ;
#82 = FACE_OUTER_BOUND ( 'NONE', #230, .T. ) ;
#83 = PERSON_AND_ORGANIZATION_ROLE ( 'design_owner' ) ;
#84 = EDGE_CURVE ( 'NONE', #192, #192, #162, .T. ) ;
#85 = AXIS2_PLACEMENT_3D ( 'NONE', #206, #187, #10 ) ;
#86 = DIRECTION ( 'NONE',  ( -4.275831445896958607E-31, -1.000000000000000000, -1.224646799147353207E-16 ) ) ;
#87 = PLANE ( 'NONE',  #96 ) ;
#88 = CARTESIAN_POINT ( 'NONE',  ( 1.640996229256272803E-13, -1.994931997373328159E-14, 47.00000000000000000 ) ) ;
#89 = CARTESIAN_POINT ( 'NONE',  ( 0.0000000000000000000, 0.0000000000000000000, 0.0000000000000000000 ) ) ;
#90 = ADVANCED_FACE ( 'NONE', ( #82, #249 ), #246, .T. ) ;
#91 =( LENGTH_UNIT ( ) NAMED_UNIT ( * ) SI_UNIT ( .MILLI., .METRE. ) );
#92 = FACE_OUTER_BOUND ( 'NONE', #244, .T. ) ;
#93 = VERTEX_POINT ( 'NONE', #235 ) ;
#94 = DIRECTION ( 'NONE',  ( 0.0000000000000000000, -1.000000000000000000, 0.0000000000000000000 ) ) ;
#95 = DIRECTION ( 'NONE',  ( 1.510825004591027855E-30, 1.000000000000000000, 4.327174794786742389E-16 ) ) ;
#96 = AXIS2_PLACEMENT_3D ( 'NONE', #107, #168, #173 ) ;
#97 = DIRECTION ( 'NONE',  ( 1.000000000000000000, 0.0000000000000000000, 0.0000000000000000000 ) ) ;
#98 = SECURITY_CLASSIFICATION_LEVEL ( 'unclassified' ) ;
#99 = CC_DESIGN_PERSON_AND_ORGANIZATION_ASSIGNMENT ( #240, #102, ( #150 ) ) ;
#100 = PERSON_AND_ORGANIZATION_ROLE ( 'creator' ) ;
#101 = ORIENTED_EDGE ( 'NONE', *, *, #153, .F. ) ;
#102 = PERSON_AND_ORGANIZATION_ROLE ( 'creator' ) ;
#103 = PRODUCT_DEFINITION ( 'UNKNOWN', '', #150, #63 ) ;
#104 = CIRCLE ( 'NONE', #30, 4.750000000000007994 ) ;
#105 = CYLINDRICAL_SURFACE ( 'NONE', #55, 4.750000000000007994 ) ;
#106 = CC_DESIGN_PERSON_AND_ORGANIZATION_ASSIGNMENT ( #23, #45, ( #17 ) ) ;
#107 = CARTESIAN_POINT ( 'NONE',  ( 3.107418391570388560E-13, 2.999519565323699889E-32, 89.00000000000000000 ) ) ;
#108 = DIRECTION ( 'NONE',  ( -3.491481338843133355E-15, 4.327174794786742882E-16, -1.000000000000000000 ) ) ;
#109 = AXIS2_PLACEMENT_3D ( 'NONE', #57, #226, #86 ) ;
#110 = DIRECTION ( 'NONE',  ( -3.491481338843133355E-15, 4.327174794786742882E-16, -1.000000000000000000 ) ) ;
#111 = CC_DESIGN_DATE_AND_TIME_ASSIGNMENT ( #142, #201, ( #103 ) ) ;
#112 = CARTESIAN_POINT ( 'NONE',  ( 6.353976404174117669E-15, -2.228674911895110517E-16, 1.819851171331032358 ) ) ;
#113 = VERTEX_POINT ( 'NONE', #260 ) ;
#114 = FACE_OUTER_BOUND ( 'NONE', #252, .T. ) ;
#115 = EDGE_LOOP ( 'NONE', ( #22 ) ) ;
#116 = DIRECTION ( 'NONE',  ( -3.491481338843133355E-15, 1.224646799147353207E-16, -1.000000000000000000 ) ) ;
#117 = CARTESIAN_POINT ( 'NONE',  ( 1.222018468595096801E-13, -1.514511178175360324E-14, 35.00000000000000000 ) ) ;
#118 = APPLICATION_PROTOCOL_DEFINITION ( 'international standard', 'config_control_design', 1994, #232 ) ;
#119 = ORIENTED_EDGE ( 'NONE', *, *, #153, .T. ) ;
#120 = ORIENTED_EDGE ( 'NONE', *, *, #12, .T. ) ;
#121 = APPROVAL_STATUS ( 'not_yet_approved' ) ;
#122 = DIRECTION ( 'NONE',  ( 3.491481338843133355E-15, -1.224646799147353207E-16, 1.000000000000000000 ) ) ;
#123 = CIRCLE ( 'NONE', #77, 4.750000000000014211 ) ;
#124 = DIRECTION ( 'NONE',  ( 0.0000000000000000000, 0.0000000000000000000, 1.000000000000000000 ) ) ;
#125 = APPROVAL ( #159, 'UNSPECIFIED' ) ;
#126 = APPROVAL_PERSON_ORGANIZATION ( #27, #205, #179 ) ;
#127 =( GEOMETRIC_REPRESENTATION_CONTEXT ( 3 ) GLOBAL_UNCERTAINTY_ASSIGNED_CONTEXT ( ( #167 ) ) GLOBAL_UNIT_ASSIGNED_CONTEXT ( ( #91, #154, #37 ) ) REPRESENTATION_CONTEXT ( 'NONE', 'WORKASPACE' ) );
#128 = ORIENTED_EDGE ( 'NONE', *, *, #255, .T. ) ;
#129 = EDGE_LOOP ( 'NONE', ( #60 ) ) ;
#130 = ORIENTED_EDGE ( 'NONE', *, *, #255, .F. ) ;
#131 = EDGE_CURVE ( 'NONE', #113, #113, #194, .T. ) ;
#132 = CARTESIAN_POINT ( 'NONE',  ( 1.640996229256272803E-13, 4.749999999999994671, 47.00000000000000000 ) ) ;
#133 = DIRECTION ( 'NONE',  ( 3.491481338843133355E-15, -4.327174794786742882E-16, 1.000000000000000000 ) ) ;
#134 = DIRECTION ( 'NONE',  ( -3.491481338843133355E-15, 1.224646799147353207E-16, -1.000000000000000000 ) ) ;
#135 = CARTESIAN_POINT ( 'NONE',  ( 1.665470182988972527E-13, -2.064103999961987301E-14, 47.70096189432330647 ) ) ;
#136 = LOCAL_TIME ( 13, 36, 16.00000000000000000, #5 ) ;
#137 = DIRECTION ( 'NONE',  ( 3.491481338843133355E-15, -4.327174794786742882E-16, 1.000000000000000000 ) ) ;
#138 = APPROVAL_DATE_TIME ( #209, #71 ) ;
#139 = MECHANICAL_CONTEXT ( 'NONE', #232, 'mechanical' ) ;
#140 = PERSON_AND_ORGANIZATION ( #152, #202 ) ;
#141 = EDGE_LOOP ( 'NONE', ( #120 ) ) ;
#142 = DATE_AND_TIME ( #79, #211 ) ;
#143 = DATE_AND_TIME ( #180, #186 ) ;
#144 = CC_DESIGN_PERSON_AND_ORGANIZATION_ASSIGNMENT ( #140, #83, ( #250 ) ) ;
#145 = FACE_OUTER_BOUND ( 'NONE', #3, .T. ) ;
#146 = CIRCLE ( 'NONE', #182, 4.750000000000007994 ) ;
#147 = DIRECTION ( 'NONE',  ( -4.275831445896958607E-31, -1.000000000000000000, -1.224646799147353207E-16 ) ) ;
#148 = FACE_OUTER_BOUND ( 'NONE', #141, .T. ) ;
#149 = CARTESIAN_POINT ( 'NONE',  ( 6.036277583965432572E-15, -2.117241166300362214E-16, 1.728858612764486935 ) ) ;
#150 = PRODUCT_DEFINITION_FORMATION_WITH_SPECIFIED_SOURCE ( 'ANY', '', #250, .NOT_KNOWN. ) ;
#151 = CARTESIAN_POINT ( 'NONE',  ( 3.072503578181957353E-13, 4.999999999999990230, 88.00000000000000000 ) ) ;
#152 = PERSON ( 'UNSPECIFIED', 'UNSPECIFIED', 'UNSPECIFIED', ('UNSPECIFIED'), ('UNSPECIFIED'), ('UNSPECIFIED') ) ;
#153 = EDGE_CURVE ( 'NONE', #93, #93, #146, .T. ) ;
#154 =( NAMED_UNIT ( * ) PLANE_ANGLE_UNIT ( ) SI_UNIT ( $, .RADIAN. ) );
#155 = EDGE_LOOP ( 'NONE', ( #67 ) ) ;
#156 = DIRECTION ( 'NONE',  ( -4.865507227925640496E-31, -1.000000000000000000, -1.369518533665898093E-16 ) ) ;
#157 = CLOSED_SHELL ( 'NONE', ( #90, #58, #33, #4, #247, #62, #75 ) ) ;
#158 = CC_DESIGN_APPROVAL ( #71, ( #17 ) ) ;
#159 = APPROVAL_STATUS ( 'not_yet_approved' ) ;
#160 = EDGE_CURVE ( 'NONE', #70, #70, #253, .T. ) ;
#161 = PERSON_AND_ORGANIZATION ( #152, #202 ) ;
#162 = CIRCLE ( 'NONE', #234, 5.000000000000000888 ) ;
#163 = CC_DESIGN_APPROVAL ( #125, ( #150 ) ) ;
#164 = PERSON_AND_ORGANIZATION ( #152, #202 ) ;
#165 = DIRECTION ( 'NONE',  ( 0.0000000000000000000, 1.000000000000000000, 0.0000000000000000000 ) ) ;
#166 = AXIS2_PLACEMENT_3D ( 'NONE', #228, #124, #97 ) ;
#167 = UNCERTAINTY_MEASURE_WITH_UNIT (LENGTH_MEASURE( 1.000000000000000082E-05 ), #91, 'distance_accuracy_value', 'NONE');
#168 = DIRECTION ( 'NONE',  ( -3.491481338843133355E-15, 1.224646799147353207E-16, -1.000000000000000000 ) ) ;
#169 = DIRECTION ( 'NONE',  ( 1.510825004591027679E-30, 1.000000000000000000, 4.327174794786742882E-16 ) ) ;
#170 = EDGE_CURVE ( 'NONE', #233, #233, #26, .T. ) ;
#171 = AXIS2_PLACEMENT_3D ( 'NONE', #135, #133, #196 ) ;
#172 = FACE_OUTER_BOUND ( 'NONE', #9, .T. ) ;
#173 = DIRECTION ( 'NONE',  ( 4.275831445896958607E-31, 1.000000000000000000, 1.224646799147353207E-16 ) ) ;
#174 = CARTESIAN_POINT ( 'NONE',  ( 1.695707298351748075E-13, -2.101578432950998968E-14, 48.56698729810778303 ) ) ;
#175 = FACE_BOUND ( 'NONE', #208, .T. ) ;
#176 = ADVANCED_FACE ( 'NONE', ( #239 ), #238, .T. ) ;
#177 = VERTEX_POINT ( 'NONE', #197 ) ;
#178 = MANIFOLD_SOLID_BREP ( 'Corps-Déplacer/Copier1[2]', #11 ) ;
#179 = APPROVAL_ROLE ( '' ) ;
#180 = CALENDAR_DATE ( 2021, 13, 10 ) ;
#181 = ORIENTED_EDGE ( 'NONE', *, *, #131, .T. ) ;
#182 = AXIS2_PLACEMENT_3D ( 'NONE', #20, #39, #40 ) ;
#183 = CC_DESIGN_SECURITY_CLASSIFICATION ( #17, ( #150 ) ) ;
#184 = DIRECTION ( 'NONE',  ( -3.491481338843133355E-15, 1.224646799147353207E-16, -1.000000000000000000 ) ) ;
#185 = DATE_TIME_ROLE ( 'classification_date' ) ;
#186 = LOCAL_TIME ( 13, 36, 16.00000000000000000, #245 ) ;
#187 = DIRECTION ( 'NONE',  ( -3.491481338843133355E-15, 1.224646799147353207E-16, -1.000000000000000000 ) ) ;
#188 = CARTESIAN_POINT ( 'NONE',  ( 1.222018468595096801E-13, 3.749399456654634167E-32, 35.00000000000000000 ) ) ;
#189 = AXIS2_PLACEMENT_3D ( 'NONE', #212, #110, #32 ) ;
#190 = APPROVAL_PERSON_ORGANIZATION ( #164, #125, #223 ) ;
#191 = EDGE_LOOP ( 'NONE', ( #130 ) ) ;
#192 = VERTEX_POINT ( 'NONE', #151 ) ;
#193 = EDGE_CURVE ( 'NONE', #73, #73, #123, .T. ) ;
#194 = CIRCLE ( 'NONE', #2, 4.000000000000001776 ) ;
#195 = FACE_OUTER_BOUND ( 'NONE', #155, .T. ) ;
#196 = DIRECTION ( 'NONE',  ( 0.0000000000000000000, -1.000000000000000000, 0.0000000000000000000 ) ) ;
#197 = CARTESIAN_POINT ( 'NONE',  ( 1.658453635950488407E-13, 4.883974596215556296, 47.50000000000000000 ) ) ;
#198 = COORDINATED_UNIVERSAL_TIME_OFFSET ( 1, 0, .AHEAD. ) ;
#199 = AXIS2_PLACEMENT_3D ( 'NONE', #174, #137, #94 ) ;
#200 = EDGE_LOOP ( 'NONE', ( #42 ) ) ;
#201 = DATE_TIME_ROLE ( 'creation_date' ) ;
#202 = ORGANIZATION ( 'UNSPECIFIED', 'UNSPECIFIED', '' ) ;
#203 = ORIENTED_EDGE ( 'NONE', *, *, #12, .F. ) ;
#204 = CALENDAR_DATE ( 2021, 13, 10 ) ;
#205 = APPROVAL ( #121, 'UNSPECIFIED' ) ;
#206 = CARTESIAN_POINT ( 'NONE',  ( 3.107418391570388560E-13, -1.089935651241144239E-14, 89.00000000000000000 ) ) ;
#207 = APPROVAL_STATUS ( 'not_yet_approved' ) ;
#208 = EDGE_LOOP ( 'NONE', ( #203 ) ) ;
#209 = DATE_AND_TIME ( #47, #136 ) ;
#210 = AXIS2_PLACEMENT_3D ( 'NONE', #88, #69, #169 ) ;
#211 = LOCAL_TIME ( 13, 36, 16.00000000000000000, #198 ) ;
#212 = CARTESIAN_POINT ( 'NONE',  ( 1.658453635950488407E-13, -2.055408027523702711E-14, 47.50000000000000000 ) ) ;
#213 = FACE_BOUND ( 'NONE', #46, .T. ) ;
#214 = FACE_OUTER_BOUND ( 'NONE', #115, .T. ) ;
#215 = TOROIDAL_SURFACE ( 'NONE', #210, 5.750000000000013323, 0.9999999999999981126 ) ;
#216 = DIRECTION ( 'NONE',  ( 0.0000000000000000000, 1.000000000000000000, 0.0000000000000000000 ) ) ;
#217 = DIRECTION ( 'NONE',  ( -3.491481338843133355E-15, 4.327174794786742882E-16, -1.000000000000000000 ) ) ;
#218 = CARTESIAN_POINT ( 'NONE',  ( 6.036277583965430206E-15, -4.750000000000007994, 1.728858612764486269 ) ) ;
#219 = CYLINDRICAL_SURFACE ( 'NONE', #68, 4.750000000000007994 ) ;
#220 = CC_DESIGN_PERSON_AND_ORGANIZATION_ASSIGNMENT ( #78, #100, ( #103 ) ) ;
#221 = CARTESIAN_POINT ( 'NONE',  ( 3.107418391570388560E-13, -1.089935651241144239E-14, 89.00000000000000000 ) ) ;
#222 = SHAPE_DEFINITION_REPRESENTATION ( #13, #241 ) ;
#223 = APPROVAL_ROLE ( '' ) ;
#224 = CONICAL_SURFACE ( 'NONE', #199, 5.500000000000016875, 0.5235987755983001479 ) ;
#225 = DATE_AND_TIME ( #21, #257 ) ;
#226 = DIRECTION ( 'NONE',  ( 3.491481338843133355E-15, -1.224646799147353207E-16, 1.000000000000000000 ) ) ;
#227 = ORIENTED_EDGE ( 'NONE', *, *, #160, .F. ) ;
#228 = CARTESIAN_POINT ( 'NONE',  ( 0.0000000000000000000, 0.0000000000000000000, 0.0000000000000000000 ) ) ;
#229 = CARTESIAN_POINT ( 'NONE',  ( 0.0000000000000000000, 0.0000000000000000000, 0.0000000000000000000 ) ) ;
#230 = EDGE_LOOP ( 'NONE', ( #28 ) ) ;
#231 = PLANE ( 'NONE',  #243 ) ;
#232 = APPLICATION_CONTEXT ( 'configuration controlled 3d designs of mechanical parts and assemblies' ) ;
#233 = VERTEX_POINT ( 'NONE', #50 ) ;
#234 = AXIS2_PLACEMENT_3D ( 'NONE', #44, #184, #165 ) ;
#235 = CARTESIAN_POINT ( 'NONE',  ( 1.222018468595096801E-13, -4.750000000000022204, 35.00000000000000000 ) ) ;
#236 = CARTESIAN_POINT ( 'NONE',  ( 1.222018468595096801E-13, -4.750000000000022204, 35.00000000000000000 ) ) ;
#237 = EDGE_LOOP ( 'NONE', ( #18 ) ) ;
#238 = CONICAL_SURFACE ( 'NONE', #261, 4.999999999999990230, 1.221730476396026388 ) ;
#239 = FACE_OUTER_BOUND ( 'NONE', #200, .T. ) ;
#240 = PERSON_AND_ORGANIZATION ( #152, #202 ) ;
#241 = ADVANCED_BREP_SHAPE_REPRESENTATION ( '43546', ( #6, #178, #166 ), #127 ) ;
#242 = ADVANCED_FACE ( 'NONE', ( #92, #114 ), #219, .T. ) ;
#243 = AXIS2_PLACEMENT_3D ( 'NONE', #188, #122, #147 ) ;
#244 = EDGE_LOOP ( 'NONE', ( #128 ) ) ;
#245 = COORDINATED_UNIVERSAL_TIME_OFFSET ( 1, 0, .AHEAD. ) ;
#246 = CYLINDRICAL_SURFACE ( 'NONE', #72, 4.999999999999997335 ) ;
#247 = ADVANCED_FACE ( 'NONE', ( #175, #195 ), #224, .T. ) ;
#248 = DATE_AND_TIME ( #204, #29 ) ;
#249 = FACE_OUTER_BOUND ( 'NONE', #237, .T. ) ;
#250 = PRODUCT ( '43546', '43546', '', ( #139 ) ) ;
#251 = CC_DESIGN_PERSON_AND_ORGANIZATION_ASSIGNMENT ( #161, #43, ( #150 ) ) ;
#252 = EDGE_LOOP ( 'NONE', ( #227 ) ) ;
#253 = CIRCLE ( 'NONE', #66, 4.750000000000007994 ) ;
#254 = FACE_OUTER_BOUND ( 'NONE', #129, .T. ) ;
#255 = EDGE_CURVE ( 'NONE', #15, #15, #104, .T. ) ;
#256 = DIRECTION ( 'NONE',  ( 3.491481338843133355E-15, -1.224646799147353207E-16, 1.000000000000000000 ) ) ;
#257 = LOCAL_TIME ( 13, 36, 16.00000000000000000, #41 ) ;
#258 = DIRECTION ( 'NONE',  ( 0.0000000000000000000, -1.000000000000000000, 0.0000000000000000000 ) ) ;
#259 = DIRECTION ( 'NONE',  ( 4.275831445896959482E-31, 1.000000000000000000, 1.224646799147353207E-16 ) ) ;
#260 = CARTESIAN_POINT ( 'NONE',  ( 3.107418391570388560E-13, 3.999999999999990674, 89.00000000000000000 ) ) ;
#261 = AXIS2_PLACEMENT_3D ( 'NONE', #112, #256, #53 ) ;
#262 = COORDINATED_UNIVERSAL_TIME_OFFSET ( 1, 0, .AHEAD. ) ;
#263 = APPLICATION_CONTEXT ( 'configuration controlled 3d designs of mechanical parts and assemblies' ) ;
ENDSEC;
END-ISO-10303-21;
