ISO-10303-21;
HEADER;
FILE_DESCRIPTION (( 'STEP AP203' ),
    '1' );
FILE_NAME ('43545.step',
    '2021-10-13T11:36:16',
    ( '' ),
    ( '' ),
    'SwSTEP 2.0',
    'SolidWorks 2019',
    '' );
FILE_SCHEMA (( 'CONFIG_CONTROL_DESIGN' ));
ENDSEC;

DATA;
#1 = FACE_OUTER_BOUND ( 'NONE', #142, .T. ) ;
#2 = MANIFOLD_SOLID_BREP ( 'Corps-Déplacer/Copier1[1]', #77 ) ;
#3 = CARTESIAN_POINT ( 'NONE',  ( 3.072503578181957353E-13, 4.999999999999990230, 88.00000000000000000 ) ) ;
#4 = MANIFOLD_SOLID_BREP ( 'Corps-Déplacer/Copier1[2]', #43 ) ;
#5 = VERTEX_POINT ( 'NONE', #3 ) ;
#6 = ORIENTED_EDGE ( 'NONE', *, *, #106, .F. ) ;
#7 = AXIS2_PLACEMENT_3D ( 'NONE', #56, #178, #202 ) ;
#8 = EDGE_LOOP ( 'NONE', ( #145 ) ) ;
#9 = EDGE_CURVE ( 'NONE', #223, #223, #94, .T. ) ;
#10 = COORDINATED_UNIVERSAL_TIME_OFFSET ( 1, 0, .AHEAD. ) ;
#11 = CC_DESIGN_PERSON_AND_ORGANIZATION_ASSIGNMENT ( #167, #46, ( #156 ) ) ;
#12 = AXIS2_PLACEMENT_3D ( 'NONE', #218, #37, #203 ) ;
#13 = ORIENTED_EDGE ( 'NONE', *, *, #110, .F. ) ;
#14 = DIRECTION ( 'NONE',  ( 0.0000000000000000000, -1.000000000000000000, 0.0000000000000000000 ) ) ;
#15 = PERSON_AND_ORGANIZATION ( #165, #233 ) ;
#16 = DIRECTION ( 'NONE',  ( 4.275831445896958607E-31, 1.000000000000000000, 1.224646799147353207E-16 ) ) ;
#17 = COORDINATED_UNIVERSAL_TIME_OFFSET ( 1, 0, .AHEAD. ) ;
#18 = FACE_OUTER_BOUND ( 'NONE', #78, .T. ) ;
#19 = CIRCLE ( 'NONE', #61, 4.999999999999997335 ) ;
#20 = FACE_OUTER_BOUND ( 'NONE', #231, .T. ) ;
#21 = FACE_OUTER_BOUND ( 'NONE', #8, .T. ) ;
#22 = APPROVAL_PERSON_ORGANIZATION ( #196, #133, #69 ) ;
#23 = FACE_BOUND ( 'NONE', #153, .T. ) ;
#24 = APPLICATION_PROTOCOL_DEFINITION ( 'international standard', 'config_control_design', 1994, #159 ) ;
#25 = CYLINDRICAL_SURFACE ( 'NONE', #243, 4.500000000000005329 ) ;
#26 = CONICAL_SURFACE ( 'NONE', #176, 4.999999999999990230, 1.221730476396026388 ) ;
#27 = DESIGN_CONTEXT ( 'detailed design', #59, 'design' ) ;
#28 = ORIENTED_EDGE ( 'NONE', *, *, #53, .F. ) ;
#29 = APPROVAL_STATUS ( 'not_yet_approved' ) ;
#30 = PRODUCT_DEFINITION_SHAPE ( 'NONE', 'NONE',  #186 ) ;
#31 = AXIS2_PLACEMENT_3D ( 'NONE', #117, #51, #16 ) ;
#32 = DIRECTION ( 'NONE',  ( 1.510825004591028030E-30, 1.000000000000000000, 4.327174794786742882E-16 ) ) ;
#33 = PERSON_AND_ORGANIZATION ( #165, #233 ) ;
#34 = FACE_OUTER_BOUND ( 'NONE', #170, .T. ) ;
#35 = COORDINATED_UNIVERSAL_TIME_OFFSET ( 1, 0, .AHEAD. ) ;
#36 = LOCAL_TIME ( 13, 36, 16.00000000000000000, #211 ) ;
#37 = DIRECTION ( 'NONE',  ( 3.491481338843133355E-15, -1.224646799147353207E-16, 1.000000000000000000 ) ) ;
#38 = DIRECTION ( 'NONE',  ( -3.491481338843133355E-15, 1.224646799147353207E-16, -1.000000000000000000 ) ) ;
#39 = CARTESIAN_POINT ( 'NONE',  ( 1.222018468595096801E-13, -4.500000000000020428, 35.00000000000000000 ) ) ;
#40 = VERTEX_POINT ( 'NONE', #146 ) ;
#41 = CARTESIAN_POINT ( 'NONE',  ( 1.640996229256272803E-13, -2.033772153549769155E-14, 47.00000000000000000 ) ) ;
#42 = DIRECTION ( 'NONE',  ( 0.0000000000000000000, -1.000000000000000000, 0.0000000000000000000 ) ) ;
#43 = CLOSED_SHELL ( 'NONE', ( #213, #65, #90 ) ) ;
#44 = CALENDAR_DATE ( 2021, 13, 10 ) ;
#45 = CC_DESIGN_PERSON_AND_ORGANIZATION_ASSIGNMENT ( #255, #112, ( #250 ) ) ;
#46 = PERSON_AND_ORGANIZATION_ROLE ( 'design_owner' ) ;
#47 = EDGE_LOOP ( 'NONE', ( #13 ) ) ;
#48 = PRODUCT_DEFINITION_FORMATION_WITH_SPECIFIED_SOURCE ( 'ANY', '', #156, .NOT_KNOWN. ) ;
#49 = APPROVAL ( #131, 'UNSPECIFIED' ) ;
#50 = COORDINATED_UNIVERSAL_TIME_OFFSET ( 1, 0, .AHEAD. ) ;
#51 = DIRECTION ( 'NONE',  ( -3.491481338843133355E-15, 1.224646799147353207E-16, -1.000000000000000000 ) ) ;
#52 = PERSON_AND_ORGANIZATION ( #165, #233 ) ;
#53 = EDGE_CURVE ( 'NONE', #182, #182, #98, .T. ) ;
#54 = DIRECTION ( 'NONE',  ( -3.491481338843133355E-15, 1.224646799147353207E-16, -1.000000000000000000 ) ) ;
#55 = DIRECTION ( 'NONE',  ( 0.0000000000000000000, 1.000000000000000000, 0.0000000000000000000 ) ) ;
#56 = CARTESIAN_POINT ( 'NONE',  ( 3.072503578181957353E-13, -1.077689183249670724E-14, 88.00000000000000000 ) ) ;
#57 = ADVANCED_FACE ( 'NONE', ( #256 ), #214, .F. ) ;
#58 = ORIENTED_EDGE ( 'NONE', *, *, #235, .F. ) ;
#59 = APPLICATION_CONTEXT ( 'configuration controlled 3d designs of mechanical parts and assemblies' ) ;
#60 = DIRECTION ( 'NONE',  ( 0.0000000000000000000, 1.000000000000000000, 0.0000000000000000000 ) ) ;
#61 = AXIS2_PLACEMENT_3D ( 'NONE', #63, #80, #107 ) ;
#62 = CARTESIAN_POINT ( 'NONE',  ( 3.107418391570388560E-13, 3.999999999999990674, 89.00000000000000000 ) ) ;
#63 = CARTESIAN_POINT ( 'NONE',  ( 1.680588740670359670E-13, -2.082841216456492346E-14, 48.13397459621553054 ) ) ;
#64 = PERSON_AND_ORGANIZATION ( #165, #233 ) ;
#65 = ADVANCED_FACE ( 'NONE', ( #34, #76 ), #96, .T. ) ;
#66 = APPROVAL_ROLE ( '' ) ;
#67 = EDGE_CURVE ( 'NONE', #150, #150, #130, .T. ) ;
#68 = ORIENTED_EDGE ( 'NONE', *, *, #235, .T. ) ;
#69 = APPROVAL_ROLE ( '' ) ;
#70 = CALENDAR_DATE ( 2021, 13, 10 ) ;
#71 = ORIENTED_EDGE ( 'NONE', *, *, #190, .F. ) ;
#72 = APPROVAL_DATE_TIME ( #236, #136 ) ;
#73 = AXIS2_PLACEMENT_3D ( 'NONE', #259, #126, #42 ) ;
#74 = DIRECTION ( 'NONE',  ( -3.491481338843133355E-15, 1.224646799147353207E-16, -1.000000000000000000 ) ) ;
#75 = EDGE_LOOP ( 'NONE', ( #194 ) ) ;
#76 = FACE_OUTER_BOUND ( 'NONE', #238, .T. ) ;
#77 = CLOSED_SHELL ( 'NONE', ( #144, #175, #57, #225, #152, #199, #128 ) ) ;
#78 = EDGE_LOOP ( 'NONE', ( #169 ) ) ;
#79 = LOCAL_TIME ( 13, 36, 16.00000000000000000, #50 ) ;
#80 = DIRECTION ( 'NONE',  ( 3.491481338843133355E-15, -4.327174794786742882E-16, 1.000000000000000000 ) ) ;
#81 = DIRECTION ( 'NONE',  ( 1.510825004591028030E-30, 1.000000000000000000, 4.327174794786742882E-16 ) ) ;
#82 =( NAMED_UNIT ( * ) SI_UNIT ( $, .STERADIAN. ) SOLID_ANGLE_UNIT ( ) );
#83 = CC_DESIGN_PERSON_AND_ORGANIZATION_ASSIGNMENT ( #15, #217, ( #48 ) ) ;
#84 = DIRECTION ( 'NONE',  ( 0.0000000000000000000, 0.0000000000000000000, 1.000000000000000000 ) ) ;
#85 = AXIS2_PLACEMENT_3D ( 'NONE', #174, #197, #221 ) ;
#86 = LOCAL_TIME ( 13, 36, 16.00000000000000000, #35 ) ;
#87 = EDGE_LOOP ( 'NONE', ( #171 ) ) ;
#88 = AXIS2_PLACEMENT_3D ( 'NONE', #122, #54, #55 ) ;
#89 = CARTESIAN_POINT ( 'NONE',  ( 1.222018468595096801E-13, 3.749399456654634167E-32, 35.00000000000000000 ) ) ;
#90 = ADVANCED_FACE ( 'NONE', ( #116 ), #160, .T. ) ;
#91 = DATE_AND_TIME ( #44, #36 ) ;
#92 = DIRECTION ( 'NONE',  ( 0.0000000000000000000, -1.000000000000000000, 0.0000000000000000000 ) ) ;
#93 = CALENDAR_DATE ( 2021, 13, 10 ) ;
#94 = CIRCLE ( 'NONE', #113, 4.500000000000005329 ) ;
#95 = ORIENTED_EDGE ( 'NONE', *, *, #9, .F. ) ;
#96 = CYLINDRICAL_SURFACE ( 'NONE', #247, 4.500000000000005329 ) ;
#97 = CARTESIAN_POINT ( 'NONE',  ( 0.0000000000000000000, 0.0000000000000000000, 0.0000000000000000000 ) ) ;
#98 = CIRCLE ( 'NONE', #88, 4.000000000000001776 ) ;
#99 = FACE_OUTER_BOUND ( 'NONE', #87, .T. ) ;
#100 = CARTESIAN_POINT ( 'NONE',  ( 0.0000000000000000000, 0.0000000000000000000, 0.0000000000000000000 ) ) ;
#101 = EDGE_CURVE ( 'NONE', #40, #40, #134, .T. ) ;
#102 = CARTESIAN_POINT ( 'NONE',  ( 6.353976404174117669E-15, -2.228674911895110517E-16, 1.819851171331032358 ) ) ;
#103 = CC_DESIGN_APPROVAL ( #133, ( #186 ) ) ;
#104 = DIRECTION ( 'NONE',  ( -3.491481338843133355E-15, 1.224646799147353207E-16, -1.000000000000000000 ) ) ;
#105 = AXIS2_PLACEMENT_3D ( 'NONE', #246, #125, #208 ) ;
#106 = EDGE_CURVE ( 'NONE', #222, #222, #237, .T. ) ;
#107 = DIRECTION ( 'NONE',  ( 0.0000000000000000000, -1.000000000000000000, 0.0000000000000000000 ) ) ;
#108 = CARTESIAN_POINT ( 'NONE',  ( 0.0000000000000000000, 0.0000000000000000000, 0.0000000000000000000 ) ) ;
#109 = EDGE_LOOP ( 'NONE', ( #68 ) ) ;
#110 = EDGE_CURVE ( 'NONE', #5, #5, #209, .T. ) ;
#111 = EDGE_LOOP ( 'NONE', ( #28 ) ) ;
#112 = PERSON_AND_ORGANIZATION_ROLE ( 'classification_officer' ) ;
#113 = AXIS2_PLACEMENT_3D ( 'NONE', #198, #216, #181 ) ;
#114 = CALENDAR_DATE ( 2021, 13, 10 ) ;
#115 = CC_DESIGN_PERSON_AND_ORGANIZATION_ASSIGNMENT ( #52, #141, ( #48 ) ) ;
#116 = FACE_OUTER_BOUND ( 'NONE', #192, .T. ) ;
#117 = CARTESIAN_POINT ( 'NONE',  ( 3.107418391570388560E-13, 2.999519565323699889E-32, 89.00000000000000000 ) ) ;
#118 = CALENDAR_DATE ( 2021, 13, 10 ) ;
#119 = CARTESIAN_POINT ( 'NONE',  ( 1.222018468595096801E-13, -1.514511178175360324E-14, 35.00000000000000000 ) ) ;
#120 = DIRECTION ( 'NONE',  ( 4.275831445896959482E-31, 1.000000000000000000, 1.224646799147353207E-16 ) ) ;
#121 = PRODUCT_RELATED_PRODUCT_CATEGORY ( 'detail', '', ( #156 ) ) ;
#122 = CARTESIAN_POINT ( 'NONE',  ( 3.107418391570388560E-13, -1.089935651241144239E-14, 89.00000000000000000 ) ) ;
#123 = VERTEX_POINT ( 'NONE', #205 ) ;
#124 = AXIS2_PLACEMENT_3D ( 'NONE', #119, #74, #14 ) ;
#125 = DIRECTION ( 'NONE',  ( -3.491481338843133355E-15, 4.327174794786742882E-16, -1.000000000000000000 ) ) ;
#126 = DIRECTION ( 'NONE',  ( 3.491481338843133355E-15, -4.327174794786742882E-16, 1.000000000000000000 ) ) ;
#127 = CC_DESIGN_APPROVAL ( #136, ( #48 ) ) ;
#128 = ADVANCED_FACE ( 'NONE', ( #18 ), #177, .F. ) ;
#129 = DIRECTION ( 'NONE',  ( 0.0000000000000000000, 1.000000000000000000, 0.0000000000000000000 ) ) ;
#130 = CIRCLE ( 'NONE', #138, 4.500000000000005329 ) ;
#131 = APPROVAL_STATUS ( 'not_yet_approved' ) ;
#132 = ORIENTED_EDGE ( 'NONE', *, *, #67, .T. ) ;
#133 = APPROVAL ( #254, 'UNSPECIFIED' ) ;
#134 = CIRCLE ( 'NONE', #85, 4.633974596215577613 ) ;
#135 = ORIENTED_EDGE ( 'NONE', *, *, #190, .T. ) ;
#136 = APPROVAL ( #29, 'UNSPECIFIED' ) ;
#137 = SHAPE_DEFINITION_REPRESENTATION ( #30, #172 ) ;
#138 = AXIS2_PLACEMENT_3D ( 'NONE', #161, #241, #92 ) ;
#139 = DATE_TIME_ROLE ( 'classification_date' ) ;
#140 = CARTESIAN_POINT ( 'NONE',  ( 0.0000000000000000000, 0.0000000000000000000, 0.0000000000000000000 ) ) ;
#141 = PERSON_AND_ORGANIZATION_ROLE ( 'creator' ) ;
#142 = EDGE_LOOP ( 'NONE', ( #135 ) ) ;
#143 = EDGE_LOOP ( 'NONE', ( #71 ) ) ;
#144 = ADVANCED_FACE ( 'NONE', ( #204, #21 ), #162, .T. ) ;
#145 = ORIENTED_EDGE ( 'NONE', *, *, #110, .T. ) ;
#146 = CARTESIAN_POINT ( 'NONE',  ( 1.658453635950488407E-13, 4.633974596215557185, 47.50000000000000000 ) ) ;
#147 = CC_DESIGN_DATE_AND_TIME_ASSIGNMENT ( #154, #139, ( #250 ) ) ;
#148 =( NAMED_UNIT ( * ) PLANE_ANGLE_UNIT ( ) SI_UNIT ( $, .RADIAN. ) );
#149 = CARTESIAN_POINT ( 'NONE',  ( 1.680588740670359670E-13, -5.000000000000018652, 48.13397459621553054 ) ) ;
#150 = VERTEX_POINT ( 'NONE', #263 ) ;
#151 = DATE_AND_TIME ( #114, #79 ) ;
#152 = ADVANCED_FACE ( 'NONE', ( #261, #20 ), #163, .T. ) ;
#153 = EDGE_LOOP ( 'NONE', ( #249 ) ) ;
#154 = DATE_AND_TIME ( #118, #86 ) ;
#155 = PERSON_AND_ORGANIZATION_ROLE ( 'creator' ) ;
#156 = PRODUCT ( '43545', '43545', '', ( #189 ) ) ;
#157 = AXIS2_PLACEMENT_3D ( 'NONE', #89, #258, #239 ) ;
#158 = APPLICATION_PROTOCOL_DEFINITION ( 'international standard', 'config_control_design', 1994, #59 ) ;
#159 = APPLICATION_CONTEXT ( 'configuration controlled 3d designs of mechanical parts and assemblies' ) ;
#160 = PLANE ( 'NONE',  #12 ) ;
#161 = CARTESIAN_POINT ( 'NONE',  ( 1.222018468595096801E-13, -1.514511178175360324E-14, 35.00000000000000000 ) ) ;
#162 = CYLINDRICAL_SURFACE ( 'NONE', #168, 4.999999999999997335 ) ;
#163 = CONICAL_SURFACE ( 'NONE', #73, 5.500000000000016875, 0.5235987755982988157 ) ;
#164 = LOCAL_TIME ( 13, 36, 16.00000000000000000, #17 ) ;
#165 = PERSON ( 'UNSPECIFIED', 'UNSPECIFIED', 'UNSPECIFIED', ('UNSPECIFIED'), ('UNSPECIFIED'), ('UNSPECIFIED') ) ;
#166 = CARTESIAN_POINT ( 'NONE',  ( 5.718578763756722232E-15, -4.500000000000005329, 1.637866054197933741 ) ) ;
#167 = PERSON_AND_ORGANIZATION ( #165, #233 ) ;
#168 = AXIS2_PLACEMENT_3D ( 'NONE', #97, #38, #120 ) ;
#169 = ORIENTED_EDGE ( 'NONE', *, *, #106, .T. ) ;
#170 = EDGE_LOOP ( 'NONE', ( #132 ) ) ;
#171 = ORIENTED_EDGE ( 'NONE', *, *, #9, .T. ) ;
#172 = ADVANCED_BREP_SHAPE_REPRESENTATION ( '43545', ( #2, #4, #200 ), #188 ) ;
#173 = DATE_AND_TIME ( #70, #184 ) ;
#174 = CARTESIAN_POINT ( 'NONE',  ( 1.658453635950488407E-13, -2.055408027523702711E-14, 47.50000000000000000 ) ) ;
#175 = ADVANCED_FACE ( 'NONE', ( #244, #23 ), #195, .T. ) ;
#176 = AXIS2_PLACEMENT_3D ( 'NONE', #102, #185, #226 ) ;
#177 = PLANE ( 'NONE',  #157 ) ;
#178 = DIRECTION ( 'NONE',  ( -3.491481338843133355E-15, 1.224646799147353207E-16, -1.000000000000000000 ) ) ;
#179 = CC_DESIGN_SECURITY_CLASSIFICATION ( #250, ( #48 ) ) ;
#180 = CC_DESIGN_PERSON_AND_ORGANIZATION_ASSIGNMENT ( #201, #155, ( #186 ) ) ;
#181 = DIRECTION ( 'NONE',  ( -3.423875456688415450E-31, -1.000000000000000000, -1.445602896647337438E-16 ) ) ;
#182 = VERTEX_POINT ( 'NONE', #62 ) ;
#183 = DIRECTION ( 'NONE',  ( -3.491481338843133355E-15, 4.327174794786742882E-16, -1.000000000000000000 ) ) ;
#184 = LOCAL_TIME ( 13, 36, 16.00000000000000000, #10 ) ;
#185 = DIRECTION ( 'NONE',  ( 3.491481338843133355E-15, -1.224646799147353207E-16, 1.000000000000000000 ) ) ;
#186 = PRODUCT_DEFINITION ( 'UNKNOWN', '', #48, #27 ) ;
#187 = FACE_OUTER_BOUND ( 'NONE', #240, .T. ) ;
#188 =( GEOMETRIC_REPRESENTATION_CONTEXT ( 3 ) GLOBAL_UNCERTAINTY_ASSIGNED_CONTEXT ( ( #251 ) ) GLOBAL_UNIT_ASSIGNED_CONTEXT ( ( #262, #148, #82 ) ) REPRESENTATION_CONTEXT ( 'NONE', 'WORKASPACE' ) );
#189 = MECHANICAL_CONTEXT ( 'NONE', #159, 'mechanical' ) ;
#190 = EDGE_CURVE ( 'NONE', #123, #123, #224, .T. ) ;
#191 = ORIENTED_EDGE ( 'NONE', *, *, #101, .F. ) ;
#192 = EDGE_LOOP ( 'NONE', ( #234 ) ) ;
#193 = APPROVAL_ROLE ( '' ) ;
#194 = ORIENTED_EDGE ( 'NONE', *, *, #101, .T. ) ;
#195 = CONICAL_SURFACE ( 'NONE', #257, 4.000000000000001776, 0.7853981633974473908 ) ;
#196 = PERSON_AND_ORGANIZATION ( #165, #233 ) ;
#197 = DIRECTION ( 'NONE',  ( -3.491481338843133355E-15, 4.327174794786742882E-16, -1.000000000000000000 ) ) ;
#198 = CARTESIAN_POINT ( 'NONE',  ( 5.718578763756723810E-15, -2.005807420705605530E-16, 1.637866054197934407 ) ) ;
#199 = ADVANCED_FACE ( 'NONE', ( #206, #210 ), #212, .F. ) ;
#200 = AXIS2_PLACEMENT_3D ( 'NONE', #108, #84, #232 ) ;
#201 = PERSON_AND_ORGANIZATION ( #165, #233 ) ;
#202 = DIRECTION ( 'NONE',  ( 0.0000000000000000000, 1.000000000000000000, 0.0000000000000000000 ) ) ;
#203 = DIRECTION ( 'NONE',  ( -4.275831445896958607E-31, -1.000000000000000000, -1.224646799147353207E-16 ) ) ;
#204 = FACE_OUTER_BOUND ( 'NONE', #109, .T. ) ;
#205 = CARTESIAN_POINT ( 'NONE',  ( 1.640996229256272803E-13, 4.499999999999992895, 47.00000000000000000 ) ) ;
#206 = FACE_OUTER_BOUND ( 'NONE', #143, .T. ) ;
#207 = DIRECTION ( 'NONE',  ( -3.491481338843133355E-15, 4.327174794786742882E-16, -1.000000000000000000 ) ) ;
#208 = DIRECTION ( 'NONE',  ( 1.510825004591027855E-30, 1.000000000000000000, 4.327174794786742882E-16 ) ) ;
#209 = CIRCLE ( 'NONE', #7, 5.000000000000000888 ) ;
#210 = FACE_OUTER_BOUND ( 'NONE', #75, .T. ) ;
#211 = COORDINATED_UNIVERSAL_TIME_OFFSET ( 1, 0, .AHEAD. ) ;
#212 = TOROIDAL_SURFACE ( 'NONE', #105, 5.500000000000014211, 0.9999999999999995559 ) ;
#213 = ADVANCED_FACE ( 'NONE', ( #99 ), #26, .T. ) ;
#214 = PLANE ( 'NONE',  #31 ) ;
#215 = CC_DESIGN_DATE_AND_TIME_ASSIGNMENT ( #173, #248, ( #186 ) ) ;
#216 = DIRECTION ( 'NONE',  ( -3.491481338843133355E-15, 1.224646799147353207E-16, -1.000000000000000000 ) ) ;
#217 = PERSON_AND_ORGANIZATION_ROLE ( 'design_supplier' ) ;
#218 = CARTESIAN_POINT ( 'NONE',  ( 1.222018468595096801E-13, 3.749399456654634167E-32, 35.00000000000000000 ) ) ;
#219 = CC_DESIGN_APPROVAL ( #49, ( #250 ) ) ;
#220 = DIRECTION ( 'NONE',  ( -3.491481338843133355E-15, 4.327174794786742882E-16, -1.000000000000000000 ) ) ;
#221 = DIRECTION ( 'NONE',  ( 0.0000000000000000000, 1.000000000000000000, 0.0000000000000000000 ) ) ;
#222 = VERTEX_POINT ( 'NONE', #39 ) ;
#223 = VERTEX_POINT ( 'NONE', #166 ) ;
#224 = CIRCLE ( 'NONE', #228, 4.500000000000012434 ) ;
#225 = ADVANCED_FACE ( 'NONE', ( #1, #187 ), #25, .T. ) ;
#226 = DIRECTION ( 'NONE',  ( -4.622231866529374805E-31, -1.000000000000000000, -1.301042606982607786E-16 ) ) ;
#227 = APPROVAL_PERSON_ORGANIZATION ( #33, #136, #66 ) ;
#228 = AXIS2_PLACEMENT_3D ( 'NONE', #41, #207, #129 ) ;
#229 = APPROVAL_DATE_TIME ( #151, #49 ) ;
#230 = SECURITY_CLASSIFICATION_LEVEL ( 'unclassified' ) ;
#231 = EDGE_LOOP ( 'NONE', ( #58 ) ) ;
#232 = DIRECTION ( 'NONE',  ( 1.000000000000000000, 0.0000000000000000000, 0.0000000000000000000 ) ) ;
#233 = ORGANIZATION ( 'UNSPECIFIED', 'UNSPECIFIED', '' ) ;
#234 = ORIENTED_EDGE ( 'NONE', *, *, #67, .F. ) ;
#235 = EDGE_CURVE ( 'NONE', #242, #242, #19, .T. ) ;
#236 = DATE_AND_TIME ( #93, #164 ) ;
#237 = CIRCLE ( 'NONE', #124, 4.500000000000005329 ) ;
#238 = EDGE_LOOP ( 'NONE', ( #95 ) ) ;
#239 = DIRECTION ( 'NONE',  ( -4.275831445896958607E-31, -1.000000000000000000, -1.224646799147353207E-16 ) ) ;
#240 = EDGE_LOOP ( 'NONE', ( #6 ) ) ;
#241 = DIRECTION ( 'NONE',  ( -3.491481338843133355E-15, 1.224646799147353207E-16, -1.000000000000000000 ) ) ;
#242 = VERTEX_POINT ( 'NONE', #149 ) ;
#243 = AXIS2_PLACEMENT_3D ( 'NONE', #100, #183, #81 ) ;
#244 = FACE_OUTER_BOUND ( 'NONE', #47, .T. ) ;
#245 = CARTESIAN_POINT ( 'NONE',  ( 3.107418391570388560E-13, -1.089935651241144239E-14, 89.00000000000000000 ) ) ;
#246 = CARTESIAN_POINT ( 'NONE',  ( 1.640996229256272803E-13, -1.994931997373328159E-14, 47.00000000000000000 ) ) ;
#247 = AXIS2_PLACEMENT_3D ( 'NONE', #140, #220, #32 ) ;
#248 = DATE_TIME_ROLE ( 'creation_date' ) ;
#249 = ORIENTED_EDGE ( 'NONE', *, *, #53, .T. ) ;
#250 = SECURITY_CLASSIFICATION ( '', '', #230 ) ;
#251 = UNCERTAINTY_MEASURE_WITH_UNIT (LENGTH_MEASURE( 1.000000000000000082E-05 ), #262, 'distance_accuracy_value', 'NONE');
#252 = EDGE_LOOP ( 'NONE', ( #191 ) ) ;
#253 = APPROVAL_DATE_TIME ( #91, #133 ) ;
#254 = APPROVAL_STATUS ( 'not_yet_approved' ) ;
#255 = PERSON_AND_ORGANIZATION ( #165, #233 ) ;
#256 = FACE_OUTER_BOUND ( 'NONE', #111, .T. ) ;
#257 = AXIS2_PLACEMENT_3D ( 'NONE', #245, #104, #60 ) ;
#258 = DIRECTION ( 'NONE',  ( 3.491481338843133355E-15, -1.224646799147353207E-16, 1.000000000000000000 ) ) ;
#259 = CARTESIAN_POINT ( 'NONE',  ( 1.710825856033135470E-13, -2.120315649445504012E-14, 49.00000000000000000 ) ) ;
#260 = APPROVAL_PERSON_ORGANIZATION ( #64, #49, #193 ) ;
#261 = FACE_BOUND ( 'NONE', #252, .T. ) ;
#262 =( LENGTH_UNIT ( ) NAMED_UNIT ( * ) SI_UNIT ( .MILLI., .METRE. ) );
#263 = CARTESIAN_POINT ( 'NONE',  ( 1.222018468595096801E-13, -4.500000000000020428, 35.00000000000000000 ) ) ;
ENDSEC;
END-ISO-10303-21;
