ISO-10303-21;
HEADER;
FILE_DESCRIPTION (( 'STEP AP203' ),
    '1' );
FILE_NAME ('43544.step',
    '2021-10-13T11:36:15',
    ( '' ),
    ( '' ),
    'SwSTEP 2.0',
    'SolidWorks 2019',
    '' );
FILE_SCHEMA (( 'CONFIG_CONTROL_DESIGN' ));
ENDSEC;

DATA;
#1 = CARTESIAN_POINT ( 'NONE',  ( 5.083181123339291296E-15, 3.999999999999989786, 1.455880937064825131 ) ) ;
#2 =( LENGTH_UNIT ( ) NAMED_UNIT ( * ) SI_UNIT ( .MILLI., .METRE. ) );
#3 = FACE_OUTER_BOUND ( 'NONE', #187, .T. ) ;
#4 = APPROVAL_ROLE ( '' ) ;
#5 = DESIGN_CONTEXT ( 'detailed design', #69, 'design' ) ;
#6 = EDGE_CURVE ( 'NONE', #151, #151, #26, .T. ) ;
#7 = APPROVAL_DATE_TIME ( #112, #200 ) ;
#8 = PERSON_AND_ORGANIZATION_ROLE ( 'creator' ) ;
#9 = AXIS2_PLACEMENT_3D ( 'NONE', #85, #84, #147 ) ;
#10 = CC_DESIGN_APPROVAL ( #200, ( #102 ) ) ;
#11 = ADVANCED_FACE ( 'NONE', ( #148, #55 ), #12, .T. ) ;
#12 = CYLINDRICAL_SURFACE ( 'NONE', #18, 3.999999999999991562 ) ;
#13 = CC_DESIGN_PERSON_AND_ORGANIZATION_ASSIGNMENT ( #113, #143, ( #179 ) ) ;
#14 = AXIS2_PLACEMENT_3D ( 'NONE', #46, #156, #91 ) ;
#15 = FACE_OUTER_BOUND ( 'NONE', #103, .T. ) ;
#16 = DIRECTION ( 'NONE',  ( -3.491481338843133355E-15, 1.224646799147353207E-16, -1.000000000000000000 ) ) ;
#17 = CYLINDRICAL_SURFACE ( 'NONE', #173, 3.999999999999996447 ) ;
#18 = AXIS2_PLACEMENT_3D ( 'NONE', #90, #65, #33 ) ;
#19 = EDGE_CURVE ( 'NONE', #134, #134, #153, .T. ) ;
#20 = DIRECTION ( 'NONE',  ( -4.275831445896958607E-31, -1.000000000000000000, -1.224646799147353207E-16 ) ) ;
#21 = APPROVAL_STATUS ( 'not_yet_approved' ) ;
#22 = APPROVAL_DATE_TIME ( #140, #184 ) ;
#23 = DATE_TIME_ROLE ( 'classification_date' ) ;
#24 = COORDINATED_UNIVERSAL_TIME_OFFSET ( 1, 0, .AHEAD. ) ;
#25 = COORDINATED_UNIVERSAL_TIME_OFFSET ( 1, 0, .AHEAD. ) ;
#26 = CIRCLE ( 'NONE', #9, 3.999999999999993339 ) ;
#27 = PRODUCT_RELATED_PRODUCT_CATEGORY ( 'detail', '', ( #179 ) ) ;
#28 = DIRECTION ( 'NONE',  ( -3.851859888774481340E-31, -1.000000000000000000, -1.084202172485507146E-16 ) ) ;
#29 = DIRECTION ( 'NONE',  ( 0.0000000000000000000, 1.000000000000000000, 0.0000000000000000000 ) ) ;
#30 = DIRECTION ( 'NONE',  ( 3.851859888774481340E-31, 1.000000000000000000, 1.084202172485507146E-16 ) ) ;
#31 = DIRECTION ( 'NONE',  ( -4.275831445896958607E-31, -1.000000000000000000, -1.224646799147353207E-16 ) ) ;
#32 = AXIS2_PLACEMENT_3D ( 'NONE', #110, #174, #20 ) ;
#33 = DIRECTION ( 'NONE',  ( 4.275831445896958607E-31, 1.000000000000000000, 1.224646799147352961E-16 ) ) ;
#34 = PERSON_AND_ORGANIZATION ( #154, #137 ) ;
#35 = DATE_AND_TIME ( #175, #72 ) ;
#36 = CLOSED_SHELL ( 'NONE', ( #11, #64, #155 ) ) ;
#37 = DIRECTION ( 'NONE',  ( 0.0000000000000000000, 0.0000000000000000000, 1.000000000000000000 ) ) ;
#38 = ADVANCED_FACE ( 'NONE', ( #47 ), #125, .F. ) ;
#39 = ORIENTED_EDGE ( 'NONE', *, *, #107, .F. ) ;
#40 = CONICAL_SURFACE ( 'NONE', #70, 3.999999999999989786, 1.221730476396026610 ) ;
#41 = ORIENTED_EDGE ( 'NONE', *, *, #136, .T. ) ;
#42 = EDGE_LOOP ( 'NONE', ( #39 ) ) ;
#43 = FACE_OUTER_BOUND ( 'NONE', #186, .T. ) ;
#44 = CIRCLE ( 'NONE', #132, 3.199999999999999289 ) ;
#45 = DIRECTION ( 'NONE',  ( 4.275831445896958607E-31, 1.000000000000000000, 1.224646799147353207E-16 ) ) ;
#46 = CARTESIAN_POINT ( 'NONE',  ( 2.730338406975331420E-13, -9.576737969332304047E-15, 78.20000000000001705 ) ) ;
#47 = FACE_OUTER_BOUND ( 'NONE', #71, .T. ) ;
#48 = AXIS2_PLACEMENT_3D ( 'NONE', #194, #37, #81 ) ;
#49 = CALENDAR_DATE ( 2021, 13, 10 ) ;
#50 = APPROVAL_STATUS ( 'not_yet_approved' ) ;
#51 = CALENDAR_DATE ( 2021, 13, 10 ) ;
#52 = APPROVAL_PERSON_ORGANIZATION ( #178, #184, #4 ) ;
#53 = PERSON_AND_ORGANIZATION ( #154, #137 ) ;
#54 = PERSON_AND_ORGANIZATION ( #154, #137 ) ;
#55 = FACE_OUTER_BOUND ( 'NONE', #98, .T. ) ;
#56 = ORIENTED_EDGE ( 'NONE', *, *, #136, .F. ) ;
#57 = APPROVAL_PERSON_ORGANIZATION ( #196, #195, #161 ) ;
#58 = DIRECTION ( 'NONE',  ( 0.0000000000000000000, 1.000000000000000000, 0.0000000000000000000 ) ) ;
#59 = DIRECTION ( 'NONE',  ( -3.491481338843133355E-15, 1.224646799147353207E-16, -1.000000000000000000 ) ) ;
#60 = CC_DESIGN_PERSON_AND_ORGANIZATION_ASSIGNMENT ( #34, #176, ( #102 ) ) ;
#61 = AXIS2_PLACEMENT_3D ( 'NONE', #104, #133, #30 ) ;
#62 = VERTEX_POINT ( 'NONE', #106 ) ;
#63 = CARTESIAN_POINT ( 'NONE',  ( 1.012529588264508673E-13, -3.551475717527324030E-15, 29.00000000000000000 ) ) ;
#64 = ADVANCED_FACE ( 'NONE', ( #73 ), #192, .T. ) ;
#65 = DIRECTION ( 'NONE',  ( -3.491481338843133355E-15, 1.224646799147353207E-16, -1.000000000000000000 ) ) ;
#66 = COORDINATED_UNIVERSAL_TIME_OFFSET ( 1, 0, .AHEAD. ) ;
#67 = MANIFOLD_SOLID_BREP ( 'Corps-Déplacer/Copier1[2]', #36 ) ;
#68 = APPLICATION_PROTOCOL_DEFINITION ( 'international standard', 'config_control_design', 1994, #163 ) ;
#69 = APPLICATION_CONTEXT ( 'configuration controlled 3d designs of mechanical parts and assemblies' ) ;
#70 = AXIS2_PLACEMENT_3D ( 'NONE', #121, #74, #28 ) ;
#71 = EDGE_LOOP ( 'NONE', ( #56 ) ) ;
#72 = LOCAL_TIME ( 13, 36, 15.00000000000000000, #96 ) ;
#73 = FACE_OUTER_BOUND ( 'NONE', #101, .T. ) ;
#74 = DIRECTION ( 'NONE',  ( 3.491481338843133355E-15, -1.224646799147353207E-16, 1.000000000000000000 ) ) ;
#75 = FACE_OUTER_BOUND ( 'NONE', #199, .T. ) ;
#76 = CARTESIAN_POINT ( 'NONE',  ( 1.012529588264508673E-13, 3.999999999999989786, 29.00000000000000000 ) ) ;
#77 = DIRECTION ( 'NONE',  ( 0.0000000000000000000, 1.000000000000000000, 0.0000000000000000000 ) ) ;
#78 =( NAMED_UNIT ( * ) SI_UNIT ( $, .STERADIAN. ) SOLID_ANGLE_UNIT ( ) );
#79 = LOCAL_TIME ( 13, 36, 15.00000000000000000, #127 ) ;
#80 = APPROVAL_DATE_TIME ( #111, #195 ) ;
#81 = DIRECTION ( 'NONE',  ( 1.000000000000000000, 0.0000000000000000000, 0.0000000000000000000 ) ) ;
#82 = ORIENTED_EDGE ( 'NONE', *, *, #19, .T. ) ;
#83 = LOCAL_TIME ( 13, 36, 15.00000000000000000, #66 ) ;
#84 = DIRECTION ( 'NONE',  ( -3.491481338843133355E-15, 1.224646799147353207E-16, -1.000000000000000000 ) ) ;
#85 = CARTESIAN_POINT ( 'NONE',  ( 1.012529588264508673E-13, -3.551475717527324030E-15, 29.00000000000000000 ) ) ;
#86 = DIRECTION ( 'NONE',  ( -3.491481338843133355E-15, 1.224646799147353207E-16, -1.000000000000000000 ) ) ;
#87 = FACE_OUTER_BOUND ( 'NONE', #167, .T. ) ;
#88 = ADVANCED_BREP_SHAPE_REPRESENTATION ( '43544', ( #202, #67, #48 ), #146 ) ;
#89 = DIRECTION ( 'NONE',  ( -3.491481338843133355E-15, 1.224646799147353207E-16, -1.000000000000000000 ) ) ;
#90 = CARTESIAN_POINT ( 'NONE',  ( 0.0000000000000000000, 0.0000000000000000000, 0.0000000000000000000 ) ) ;
#91 = DIRECTION ( 'NONE',  ( 0.0000000000000000000, 1.000000000000000000, 0.0000000000000000000 ) ) ;
#92 = APPROVAL_ROLE ( '' ) ;
#93 = CC_DESIGN_DATE_AND_TIME_ASSIGNMENT ( #177, #145, ( #150 ) ) ;
#94 = APPROVAL_STATUS ( 'not_yet_approved' ) ;
#95 = CIRCLE ( 'NONE', #61, 3.999999999999989786 ) ;
#96 = COORDINATED_UNIVERSAL_TIME_OFFSET ( 1, 0, .AHEAD. ) ;
#97 = CALENDAR_DATE ( 2021, 13, 10 ) ;
#98 = EDGE_LOOP ( 'NONE', ( #119 ) ) ;
#99 = EDGE_LOOP ( 'NONE', ( #41 ) ) ;
#100 = ADVANCED_FACE ( 'NONE', ( #75 ), #201, .F. ) ;
#101 = EDGE_LOOP ( 'NONE', ( #168 ) ) ;
#102 = PRODUCT_DEFINITION_FORMATION_WITH_SPECIFIED_SOURCE ( 'ANY', '', #179, .NOT_KNOWN. ) ;
#103 = EDGE_LOOP ( 'NONE', ( #82 ) ) ;
#104 = CARTESIAN_POINT ( 'NONE',  ( 5.083181123339289718E-15, -1.782939929516086737E-16, 1.455880937064824687 ) ) ;
#105 = DIRECTION ( 'NONE',  ( 3.491481338843133355E-15, -1.224646799147353207E-16, 1.000000000000000000 ) ) ;
#106 = CARTESIAN_POINT ( 'NONE',  ( 2.758270257686075477E-13, 3.199999999999989964, 79.00000000000000000 ) ) ;
#107 = EDGE_CURVE ( 'NONE', #203, #203, #95, .T. ) ;
#108 =( NAMED_UNIT ( * ) PLANE_ANGLE_UNIT ( ) SI_UNIT ( $, .RADIAN. ) );
#109 = AXIS2_PLACEMENT_3D ( 'NONE', #169, #16, #45 ) ;
#110 = CARTESIAN_POINT ( 'NONE',  ( 1.012529588264508673E-13, 2.999519565323705363E-32, 29.00000000000000000 ) ) ;
#111 = DATE_AND_TIME ( #49, #79 ) ;
#112 = DATE_AND_TIME ( #97, #180 ) ;
#113 = PERSON_AND_ORGANIZATION ( #154, #137 ) ;
#114 = CC_DESIGN_APPROVAL ( #195, ( #129 ) ) ;
#115 = SECURITY_CLASSIFICATION_LEVEL ( 'unclassified' ) ;
#116 = PRODUCT_DEFINITION_SHAPE ( 'NONE', 'NONE',  #150 ) ;
#117 = PERSON_AND_ORGANIZATION ( #154, #137 ) ;
#118 = APPROVAL_PERSON_ORGANIZATION ( #160, #200, #92 ) ;
#119 = ORIENTED_EDGE ( 'NONE', *, *, #6, .T. ) ;
#120 = CARTESIAN_POINT ( 'NONE',  ( 2.758270257686075477E-13, -9.674709713264090904E-15, 79.00000000000000000 ) ) ;
#121 = CARTESIAN_POINT ( 'NONE',  ( 5.083181123339289718E-15, -1.782939929516086737E-16, 1.455880937064824687 ) ) ;
#122 = CC_DESIGN_SECURITY_CLASSIFICATION ( #129, ( #102 ) ) ;
#123 = VERTEX_POINT ( 'NONE', #76 ) ;
#124 = CC_DESIGN_PERSON_AND_ORGANIZATION_ASSIGNMENT ( #53, #8, ( #102 ) ) ;
#125 = PLANE ( 'NONE',  #109 ) ;
#126 = CIRCLE ( 'NONE', #131, 3.999999999999993339 ) ;
#127 = COORDINATED_UNIVERSAL_TIME_OFFSET ( 1, 0, .AHEAD. ) ;
#128 = PERSON_AND_ORGANIZATION_ROLE ( 'creator' ) ;
#129 = SECURITY_CLASSIFICATION ( '', '', #115 ) ;
#130 = EDGE_CURVE ( 'NONE', #123, #123, #126, .T. ) ;
#131 = AXIS2_PLACEMENT_3D ( 'NONE', #63, #59, #77 ) ;
#132 = AXIS2_PLACEMENT_3D ( 'NONE', #120, #89, #58 ) ;
#133 = DIRECTION ( 'NONE',  ( -3.491481338843133355E-15, 1.224646799147353207E-16, -1.000000000000000000 ) ) ;
#134 = VERTEX_POINT ( 'NONE', #172 ) ;
#135 = CARTESIAN_POINT ( 'NONE',  ( 1.012529588264508673E-13, 3.999999999999989786, 29.00000000000000000 ) ) ;
#136 = EDGE_CURVE ( 'NONE', #62, #62, #44, .T. ) ;
#137 = ORGANIZATION ( 'UNSPECIFIED', 'UNSPECIFIED', '' ) ;
#138 = CARTESIAN_POINT ( 'NONE',  ( 1.012529588264508673E-13, 2.999519565323705363E-32, 29.00000000000000000 ) ) ;
#139 = CC_DESIGN_DATE_AND_TIME_ASSIGNMENT ( #35, #23, ( #129 ) ) ;
#140 = DATE_AND_TIME ( #157, #83 ) ;
#141 = UNCERTAINTY_MEASURE_WITH_UNIT (LENGTH_MEASURE( 1.000000000000000082E-05 ), #2, 'distance_accuracy_value', 'NONE');
#142 = SHAPE_DEFINITION_REPRESENTATION ( #116, #88 ) ;
#143 = PERSON_AND_ORGANIZATION_ROLE ( 'design_owner' ) ;
#144 = CC_DESIGN_PERSON_AND_ORGANIZATION_ASSIGNMENT ( #117, #158, ( #129 ) ) ;
#145 = DATE_TIME_ROLE ( 'creation_date' ) ;
#146 =( GEOMETRIC_REPRESENTATION_CONTEXT ( 3 ) GLOBAL_UNCERTAINTY_ASSIGNED_CONTEXT ( ( #141 ) ) GLOBAL_UNIT_ASSIGNED_CONTEXT ( ( #2, #108, #78 ) ) REPRESENTATION_CONTEXT ( 'NONE', 'WORKASPACE' ) );
#147 = DIRECTION ( 'NONE',  ( 0.0000000000000000000, 1.000000000000000000, 0.0000000000000000000 ) ) ;
#148 = FACE_OUTER_BOUND ( 'NONE', #42, .T. ) ;
#149 = FACE_BOUND ( 'NONE', #99, .T. ) ;
#150 = PRODUCT_DEFINITION ( 'UNKNOWN', '', #102, #5 ) ;
#151 = VERTEX_POINT ( 'NONE', #135 ) ;
#152 = DIRECTION ( 'NONE',  ( -3.491481338843133355E-15, 1.224646799147353207E-16, -1.000000000000000000 ) ) ;
#153 = CIRCLE ( 'NONE', #14, 3.999999999999999112 ) ;
#154 = PERSON ( 'UNSPECIFIED', 'UNSPECIFIED', 'UNSPECIFIED', ('UNSPECIFIED'), ('UNSPECIFIED'), ('UNSPECIFIED') ) ;
#155 = ADVANCED_FACE ( 'NONE', ( #87 ), #40, .T. ) ;
#156 = DIRECTION ( 'NONE',  ( -3.491481338843133355E-15, 1.224646799147353207E-16, -1.000000000000000000 ) ) ;
#157 = CALENDAR_DATE ( 2021, 13, 10 ) ;
#158 = PERSON_AND_ORGANIZATION_ROLE ( 'classification_officer' ) ;
#159 = ADVANCED_FACE ( 'NONE', ( #3, #15 ), #17, .T. ) ;
#160 = PERSON_AND_ORGANIZATION ( #154, #137 ) ;
#161 = APPROVAL_ROLE ( '' ) ;
#162 = AXIS2_PLACEMENT_3D ( 'NONE', #138, #105, #31 ) ;
#163 = APPLICATION_CONTEXT ( 'configuration controlled 3d designs of mechanical parts and assemblies' ) ;
#164 = CC_DESIGN_APPROVAL ( #184, ( #150 ) ) ;
#165 = ORIENTED_EDGE ( 'NONE', *, *, #19, .F. ) ;
#166 = AXIS2_PLACEMENT_3D ( 'NONE', #171, #86, #29 ) ;
#167 = EDGE_LOOP ( 'NONE', ( #181 ) ) ;
#168 = ORIENTED_EDGE ( 'NONE', *, *, #6, .F. ) ;
#169 = CARTESIAN_POINT ( 'NONE',  ( 2.758270257686075477E-13, 2.399615652258957393E-32, 79.00000000000000000 ) ) ;
#170 = CC_DESIGN_PERSON_AND_ORGANIZATION_ASSIGNMENT ( #54, #128, ( #150 ) ) ;
#171 = CARTESIAN_POINT ( 'NONE',  ( 2.758270257686075477E-13, -9.674709713264090904E-15, 79.00000000000000000 ) ) ;
#172 = CARTESIAN_POINT ( 'NONE',  ( 2.730338406975331420E-13, 3.999999999999989786, 78.20000000000001705 ) ) ;
#173 = AXIS2_PLACEMENT_3D ( 'NONE', #190, #152, #188 ) ;
#174 = DIRECTION ( 'NONE',  ( 3.491481338843133355E-15, -1.224646799147353207E-16, 1.000000000000000000 ) ) ;
#175 = CALENDAR_DATE ( 2021, 13, 10 ) ;
#176 = PERSON_AND_ORGANIZATION_ROLE ( 'design_supplier' ) ;
#177 = DATE_AND_TIME ( #51, #185 ) ;
#178 = PERSON_AND_ORGANIZATION ( #154, #137 ) ;
#179 = PRODUCT ( '43544', '43544', '', ( #197 ) ) ;
#180 = LOCAL_TIME ( 13, 36, 15.00000000000000000, #25 ) ;
#181 = ORIENTED_EDGE ( 'NONE', *, *, #107, .T. ) ;
#182 = ORIENTED_EDGE ( 'NONE', *, *, #130, .F. ) ;
#183 = ORIENTED_EDGE ( 'NONE', *, *, #130, .T. ) ;
#184 = APPROVAL ( #94, 'UNSPECIFIED' ) ;
#185 = LOCAL_TIME ( 13, 36, 15.00000000000000000, #24 ) ;
#186 = EDGE_LOOP ( 'NONE', ( #165 ) ) ;
#187 = EDGE_LOOP ( 'NONE', ( #182 ) ) ;
#188 = DIRECTION ( 'NONE',  ( 4.275831445896957731E-31, 1.000000000000000000, 1.224646799147353207E-16 ) ) ;
#189 = ADVANCED_FACE ( 'NONE', ( #43, #149 ), #198, .T. ) ;
#190 = CARTESIAN_POINT ( 'NONE',  ( 0.0000000000000000000, 0.0000000000000000000, 0.0000000000000000000 ) ) ;
#191 = CLOSED_SHELL ( 'NONE', ( #100, #159, #189, #38 ) ) ;
#192 = PLANE ( 'NONE',  #162 ) ;
#193 = APPLICATION_PROTOCOL_DEFINITION ( 'international standard', 'config_control_design', 1994, #69 ) ;
#194 = CARTESIAN_POINT ( 'NONE',  ( 0.0000000000000000000, 0.0000000000000000000, 0.0000000000000000000 ) ) ;
#195 = APPROVAL ( #21, 'UNSPECIFIED' ) ;
#196 = PERSON_AND_ORGANIZATION ( #154, #137 ) ;
#197 = MECHANICAL_CONTEXT ( 'NONE', #163, 'mechanical' ) ;
#198 = CONICAL_SURFACE ( 'NONE', #166, 3.199999999999999289, 0.7853981633974599363 ) ;
#199 = EDGE_LOOP ( 'NONE', ( #183 ) ) ;
#200 = APPROVAL ( #50, 'UNSPECIFIED' ) ;
#201 = PLANE ( 'NONE',  #32 ) ;
#202 = MANIFOLD_SOLID_BREP ( 'Corps-Déplacer/Copier1[1]', #191 ) ;
#203 = VERTEX_POINT ( 'NONE', #1 ) ;
ENDSEC;
END-ISO-10303-21;
