ISO-10303-21;
HEADER;
FILE_DESCRIPTION (( 'STEP AP203' ),
    '1' );
FILE_NAME ('43543.step',
    '2021-10-13T11:36:14',
    ( '' ),
    ( '' ),
    'SwSTEP 2.0',
    'SolidWorks 2019',
    '' );
FILE_SCHEMA (( 'CONFIG_CONTROL_DESIGN' ));
ENDSEC;

DATA;
#1 = CIRCLE ( 'NONE', #87, 3.900000000000006128 ) ;
#2 = APPROVAL_STATUS ( 'not_yet_approved' ) ;
#3 = EDGE_LOOP ( 'NONE', ( #111 ) ) ;
#4 = EDGE_LOOP ( 'NONE', ( #156 ) ) ;
#5 = CIRCLE ( 'NONE', #188, 3.900000000000006128 ) ;
#6 = CARTESIAN_POINT ( 'NONE',  ( 2.758270257686075477E-13, -9.674709713264090904E-15, 79.00000000000000000 ) ) ;
#7 = PLANE ( 'NONE',  #105 ) ;
#8 = DIRECTION ( 'NONE',  ( 0.0000000000000000000, -1.000000000000000000, 0.0000000000000000000 ) ) ;
#9 = CC_DESIGN_DATE_AND_TIME_ASSIGNMENT ( #34, #226, ( #94 ) ) ;
#10 = ORGANIZATION ( 'UNSPECIFIED', 'UNSPECIFIED', '' ) ;
#11 = ORIENTED_EDGE ( 'NONE', *, *, #47, .F. ) ;
#12 = APPLICATION_CONTEXT ( 'configuration controlled 3d designs of mechanical parts and assemblies' ) ;
#13 = FACE_OUTER_BOUND ( 'NONE', #3, .T. ) ;
#14 = DATE_AND_TIME ( #180, #39 ) ;
#15 =( GEOMETRIC_REPRESENTATION_CONTEXT ( 3 ) GLOBAL_UNCERTAINTY_ASSIGNED_CONTEXT ( ( #168 ) ) GLOBAL_UNIT_ASSIGNED_CONTEXT ( ( #104, #238, #46 ) ) REPRESENTATION_CONTEXT ( 'NONE', 'WORKASPACE' ) );
#16 = CC_DESIGN_PERSON_AND_ORGANIZATION_ASSIGNMENT ( #21, #222, ( #43 ) ) ;
#17 = CARTESIAN_POINT ( 'NONE',  ( 1.012529588264508673E-13, -1.254880690488155436E-14, 29.00000000000000000 ) ) ;
#18 = CARTESIAN_POINT ( 'NONE',  ( 2.758270257686075477E-13, 3.199999999999989964, 79.00000000000000000 ) ) ;
#19 = CARTESIAN_POINT ( 'NONE',  ( 4.956101595255826723E-15, -3.900000000000006128, 1.419483913638209582 ) ) ;
#20 = AXIS2_PLACEMENT_3D ( 'NONE', #157, #230, #8 ) ;
#21 = PERSON_AND_ORGANIZATION ( #201, #10 ) ;
#22 = EDGE_LOOP ( 'NONE', ( #41 ) ) ;
#23 = DIRECTION ( 'NONE',  ( 3.491481338843133355E-15, -1.224646799147353207E-16, 1.000000000000000000 ) ) ;
#24 = ORIENTED_EDGE ( 'NONE', *, *, #109, .F. ) ;
#25 = ADVANCED_FACE ( 'NONE', ( #195 ), #7, .T. ) ;
#26 = CARTESIAN_POINT ( 'NONE',  ( 0.0000000000000000000, 0.0000000000000000000, 0.0000000000000000000 ) ) ;
#27 = EDGE_LOOP ( 'NONE', ( #228 ) ) ;
#28 = AXIS2_PLACEMENT_3D ( 'NONE', #84, #161, #159 ) ;
#29 = CYLINDRICAL_SURFACE ( 'NONE', #49, 3.900000000000006128 ) ;
#30 = VERTEX_POINT ( 'NONE', #19 ) ;
#31 = CC_DESIGN_PERSON_AND_ORGANIZATION_ASSIGNMENT ( #202, #76, ( #43 ) ) ;
#32 = VERTEX_POINT ( 'NONE', #52 ) ;
#33 = CC_DESIGN_APPROVAL ( #151, ( #63 ) ) ;
#34 = DATE_AND_TIME ( #241, #96 ) ;
#35 = EDGE_LOOP ( 'NONE', ( #58 ) ) ;
#36 = ORIENTED_EDGE ( 'NONE', *, *, #109, .T. ) ;
#37 = EDGE_LOOP ( 'NONE', ( #24 ) ) ;
#38 = PERSON_AND_ORGANIZATION_ROLE ( 'creator' ) ;
#39 = LOCAL_TIME ( 13, 36, 14.00000000000000000, #103 ) ;
#40 = PERSON_AND_ORGANIZATION ( #201, #10 ) ;
#41 = ORIENTED_EDGE ( 'NONE', *, *, #47, .T. ) ;
#42 = DIRECTION ( 'NONE',  ( 0.0000000000000000000, 1.000000000000000000, 0.0000000000000000000 ) ) ;
#43 = PRODUCT_DEFINITION_FORMATION_WITH_SPECIFIED_SOURCE ( 'ANY', '', #95, .NOT_KNOWN. ) ;
#44 = EDGE_LOOP ( 'NONE', ( #155 ) ) ;
#45 = DIRECTION ( 'NONE',  ( -3.491481338843133355E-15, 4.327174794786742882E-16, -1.000000000000000000 ) ) ;
#46 =( NAMED_UNIT ( * ) SI_UNIT ( $, .STERADIAN. ) SOLID_ANGLE_UNIT ( ) );
#47 = EDGE_CURVE ( 'NONE', #30, #30, #1, .T. ) ;
#48 = CLOSED_SHELL ( 'NONE', ( #185, #173, #25 ) ) ;
#49 = AXIS2_PLACEMENT_3D ( 'NONE', #86, #118, #121 ) ;
#50 = CC_DESIGN_PERSON_AND_ORGANIZATION_ASSIGNMENT ( #69, #38, ( #94 ) ) ;
#51 = FACE_OUTER_BOUND ( 'NONE', #44, .T. ) ;
#52 = CARTESIAN_POINT ( 'NONE',  ( 1.411811549856527386E-13, 3.999999999999979128, 40.43588989435403391 ) ) ;
#53 = PERSON_AND_ORGANIZATION ( #201, #10 ) ;
#54 = ORIENTED_EDGE ( 'NONE', *, *, #101, .T. ) ;
#55 = ORIENTED_EDGE ( 'NONE', *, *, #139, .T. ) ;
#56 = APPROVAL ( #2, 'UNSPECIFIED' ) ;
#57 = APPROVAL_ROLE ( '' ) ;
#58 = ORIENTED_EDGE ( 'NONE', *, *, #144, .T. ) ;
#59 = CONICAL_SURFACE ( 'NONE', #203, 3.999999999999989786, 1.221730476396026610 ) ;
#60 = EDGE_LOOP ( 'NONE', ( #205 ) ) ;
#61 = CARTESIAN_POINT ( 'NONE',  ( 4.956101595255828301E-15, -1.738366431278191853E-16, 1.419483913638210026 ) ) ;
#62 = DIRECTION ( 'NONE',  ( 3.491481338843133355E-15, -4.327174794786742882E-16, 1.000000000000000000 ) ) ;
#63 = SECURITY_CLASSIFICATION ( '', '', #135 ) ;
#64 = DIRECTION ( 'NONE',  ( 4.275831445896958607E-31, 1.000000000000000000, 1.224646799147353207E-16 ) ) ;
#65 = FACE_OUTER_BOUND ( 'NONE', #223, .T. ) ;
#66 = FACE_OUTER_BOUND ( 'NONE', #22, .T. ) ;
#67 = PERSON_AND_ORGANIZATION ( #201, #10 ) ;
#68 = AXIS2_PLACEMENT_3D ( 'NONE', #138, #81, #42 ) ;
#69 = PERSON_AND_ORGANIZATION ( #201, #10 ) ;
#70 = EDGE_CURVE ( 'NONE', #219, #219, #152, .T. ) ;
#71 = MANIFOLD_SOLID_BREP ( 'Corps-Déplacer/Copier1[1]', #210 ) ;
#72 = MECHANICAL_CONTEXT ( 'NONE', #158, 'mechanical' ) ;
#73 = CC_DESIGN_APPROVAL ( #120, ( #94 ) ) ;
#74 = PERSON_AND_ORGANIZATION_ROLE ( 'design_owner' ) ;
#75 = CC_DESIGN_SECURITY_CLASSIFICATION ( #63, ( #43 ) ) ;
#76 = PERSON_AND_ORGANIZATION_ROLE ( 'creator' ) ;
#77 = ADVANCED_FACE ( 'NONE', ( #97 ), #192, .F. ) ;
#78 = AXIS2_PLACEMENT_3D ( 'NONE', #179, #232, #212 ) ;
#79 = CC_DESIGN_PERSON_AND_ORGANIZATION_ASSIGNMENT ( #53, #183, ( #63 ) ) ;
#80 = CYLINDRICAL_SURFACE ( 'NONE', #177, 3.999999999999996447 ) ;
#81 = DIRECTION ( 'NONE',  ( -3.491481338843133355E-15, 1.224646799147353207E-16, -1.000000000000000000 ) ) ;
#82 = AXIS2_PLACEMENT_3D ( 'NONE', #126, #240, #129 ) ;
#83 = DIRECTION ( 'NONE',  ( 0.0000000000000000000, 1.000000000000000000, 0.0000000000000000000 ) ) ;
#84 = CARTESIAN_POINT ( 'NONE',  ( 1.396592535537253342E-13, -1.730869917914697153E-14, 40.00000000000000000 ) ) ;
#85 = PRODUCT_RELATED_PRODUCT_CATEGORY ( 'detail', '', ( #95 ) ) ;
#86 = CARTESIAN_POINT ( 'NONE',  ( 0.0000000000000000000, 0.0000000000000000000, 0.0000000000000000000 ) ) ;
#87 = AXIS2_PLACEMENT_3D ( 'NONE', #61, #208, #100 ) ;
#88 = CARTESIAN_POINT ( 'NONE',  ( 1.012529588264508673E-13, -3.900000000000019007, 29.00000000000000000 ) ) ;
#89 = PRODUCT_DEFINITION_SHAPE ( 'NONE', 'NONE',  #94 ) ;
#90 = DIRECTION ( 'NONE',  ( 0.0000000000000000000, 0.0000000000000000000, 1.000000000000000000 ) ) ;
#91 = LOCAL_TIME ( 13, 36, 14.00000000000000000, #110 ) ;
#92 = APPROVAL_DATE_TIME ( #186, #56 ) ;
#93 = COORDINATED_UNIVERSAL_TIME_OFFSET ( 1, 0, .AHEAD. ) ;
#94 = PRODUCT_DEFINITION ( 'UNKNOWN', '', #43, #132 ) ;
#95 = PRODUCT ( '43543', '43543', '', ( #72 ) ) ;
#96 = LOCAL_TIME ( 13, 36, 14.00000000000000000, #130 ) ;
#97 = FACE_OUTER_BOUND ( 'NONE', #176, .T. ) ;
#98 = CC_DESIGN_PERSON_AND_ORGANIZATION_ASSIGNMENT ( #163, #74, ( #95 ) ) ;
#99 = DIRECTION ( 'NONE',  ( 4.275831445896957731E-31, 1.000000000000000000, 1.224646799147353207E-16 ) ) ;
#100 = DIRECTION ( 'NONE',  ( -3.950625526948169956E-31, -1.000000000000000000, -1.112002228190259226E-16 ) ) ;
#101 = EDGE_CURVE ( 'NONE', #218, #218, #220, .T. ) ;
#102 = CARTESIAN_POINT ( 'NONE',  ( 1.411811549856527386E-13, -1.753585193618317461E-14, 40.43588989435403391 ) ) ;
#103 = COORDINATED_UNIVERSAL_TIME_OFFSET ( 1, 0, .AHEAD. ) ;
#104 =( LENGTH_UNIT ( ) NAMED_UNIT ( * ) SI_UNIT ( .MILLI., .METRE. ) );
#105 = AXIS2_PLACEMENT_3D ( 'NONE', #194, #23, #136 ) ;
#106 = CARTESIAN_POINT ( 'NONE',  ( 1.012529588264508673E-13, -3.900000000000019007, 29.00000000000000000 ) ) ;
#107 = CARTESIAN_POINT ( 'NONE',  ( 2.758270257686075477E-13, -9.674709713264090904E-15, 79.00000000000000000 ) ) ;
#108 = CARTESIAN_POINT ( 'NONE',  ( 0.0000000000000000000, 0.0000000000000000000, 0.0000000000000000000 ) ) ;
#109 = EDGE_CURVE ( 'NONE', #197, #197, #239, .T. ) ;
#110 = COORDINATED_UNIVERSAL_TIME_OFFSET ( 1, 0, .AHEAD. ) ;
#111 = ORIENTED_EDGE ( 'NONE', *, *, #70, .T. ) ;
#112 = SHAPE_DEFINITION_REPRESENTATION ( #89, #127 ) ;
#113 = AXIS2_PLACEMENT_3D ( 'NONE', #107, #199, #143 ) ;
#114 = DATE_TIME_ROLE ( 'classification_date' ) ;
#115 = EDGE_LOOP ( 'NONE', ( #187 ) ) ;
#116 = DIRECTION ( 'NONE',  ( 3.491481338843133355E-15, -1.224646799147353207E-16, 1.000000000000000000 ) ) ;
#117 = AXIS2_PLACEMENT_3D ( 'NONE', #6, #122, #83 ) ;
#118 = DIRECTION ( 'NONE',  ( -3.491481338843133355E-15, 4.327174794786742882E-16, -1.000000000000000000 ) ) ;
#119 = FACE_OUTER_BOUND ( 'NONE', #4, .T. ) ;
#120 = APPROVAL ( #123, 'UNSPECIFIED' ) ;
#121 = DIRECTION ( 'NONE',  ( 1.510825004591027855E-30, 1.000000000000000000, 4.327174794786742882E-16 ) ) ;
#122 = DIRECTION ( 'NONE',  ( -3.491481338843133355E-15, 1.224646799147353207E-16, -1.000000000000000000 ) ) ;
#123 = APPROVAL_STATUS ( 'not_yet_approved' ) ;
#124 = DIRECTION ( 'NONE',  ( -3.491481338843133355E-15, 1.224646799147353207E-16, -1.000000000000000000 ) ) ;
#125 = APPROVAL_PERSON_ORGANIZATION ( #67, #120, #196 ) ;
#126 = CARTESIAN_POINT ( 'NONE',  ( 1.396592535537253342E-13, -1.734723475976807094E-14, 40.00000000000000000 ) ) ;
#127 = ADVANCED_BREP_SHAPE_REPRESENTATION ( '43543', ( #71, #231, #233 ), #15 ) ;
#128 = ADVANCED_FACE ( 'NONE', ( #193, #119 ), #29, .T. ) ;
#129 = DIRECTION ( 'NONE',  ( 1.510825004591027855E-30, 1.000000000000000000, 4.327174794786742882E-16 ) ) ;
#130 = COORDINATED_UNIVERSAL_TIME_OFFSET ( 1, 0, .AHEAD. ) ;
#131 = LOCAL_TIME ( 13, 36, 14.00000000000000000, #93 ) ;
#132 = DESIGN_CONTEXT ( 'detailed design', #12, 'design' ) ;
#133 = CALENDAR_DATE ( 2021, 13, 10 ) ;
#134 = CIRCLE ( 'NONE', #28, 3.900000000000012790 ) ;
#135 = SECURITY_CLASSIFICATION_LEVEL ( 'unclassified' ) ;
#136 = DIRECTION ( 'NONE',  ( -4.275831445896958607E-31, -1.000000000000000000, -1.224646799147353207E-16 ) ) ;
#137 = FACE_OUTER_BOUND ( 'NONE', #60, .T. ) ;
#138 = CARTESIAN_POINT ( 'NONE',  ( 2.730338406975331420E-13, -9.576737969332304047E-15, 78.20000000000001705 ) ) ;
#139 = EDGE_CURVE ( 'NONE', #32, #32, #211, .T. ) ;
#140 = FACE_OUTER_BOUND ( 'NONE', #184, .T. ) ;
#141 = CARTESIAN_POINT ( 'NONE',  ( 0.0000000000000000000, 0.0000000000000000000, 0.0000000000000000000 ) ) ;
#142 = VERTEX_POINT ( 'NONE', #106 ) ;
#143 = DIRECTION ( 'NONE',  ( 0.0000000000000000000, 1.000000000000000000, 0.0000000000000000000 ) ) ;
#144 = EDGE_CURVE ( 'NONE', #200, #200, #134, .T. ) ;
#145 = FACE_OUTER_BOUND ( 'NONE', #37, .T. ) ;
#146 = TOROIDAL_SURFACE ( 'NONE', #82, 4.900000000000011013, 0.9999999999999983347 ) ;
#147 = ADVANCED_FACE ( 'NONE', ( #137 ), #234, .F. ) ;
#148 = FACE_BOUND ( 'NONE', #215, .T. ) ;
#149 = DATE_AND_TIME ( #133, #227 ) ;
#150 = APPROVAL_STATUS ( 'not_yet_approved' ) ;
#151 = APPROVAL ( #150, 'UNSPECIFIED' ) ;
#152 = CIRCLE ( 'NONE', #20, 3.900000000000006128 ) ;
#153 = APPROVAL_DATE_TIME ( #172, #151 ) ;
#154 = PERSON_AND_ORGANIZATION ( #201, #10 ) ;
#155 = ORIENTED_EDGE ( 'NONE', *, *, #139, .F. ) ;
#156 = ORIENTED_EDGE ( 'NONE', *, *, #224, .F. ) ;
#157 = CARTESIAN_POINT ( 'NONE',  ( 1.012529588264508673E-13, -1.254880690488155436E-14, 29.00000000000000000 ) ) ;
#158 = APPLICATION_CONTEXT ( 'configuration controlled 3d designs of mechanical parts and assemblies' ) ;
#159 = DIRECTION ( 'NONE',  ( 0.0000000000000000000, 1.000000000000000000, 0.0000000000000000000 ) ) ;
#160 = AXIS2_PLACEMENT_3D ( 'NONE', #102, #62, #178 ) ;
#161 = DIRECTION ( 'NONE',  ( -3.491481338843133355E-15, 4.327174794786742882E-16, -1.000000000000000000 ) ) ;
#162 = FACE_OUTER_BOUND ( 'NONE', #243, .T. ) ;
#163 = PERSON_AND_ORGANIZATION ( #201, #10 ) ;
#164 = APPROVAL_DATE_TIME ( #14, #120 ) ;
#165 = DIRECTION ( 'NONE',  ( 0.0000000000000000000, -1.000000000000000000, 0.0000000000000000000 ) ) ;
#166 = ADVANCED_FACE ( 'NONE', ( #65, #162 ), #80, .T. ) ;
#167 = CARTESIAN_POINT ( 'NONE',  ( 1.396592535537253342E-13, 3.899999999999995470, 40.00000000000000000 ) ) ;
#168 = UNCERTAINTY_MEASURE_WITH_UNIT (LENGTH_MEASURE( 1.000000000000000082E-05 ), #104, 'distance_accuracy_value', 'NONE');
#169 = CALENDAR_DATE ( 2021, 13, 10 ) ;
#170 = ORIENTED_EDGE ( 'NONE', *, *, #101, .F. ) ;
#171 = AXIS2_PLACEMENT_3D ( 'NONE', #174, #175, #64 ) ;
#172 = DATE_AND_TIME ( #242, #131 ) ;
#173 = ADVANCED_FACE ( 'NONE', ( #13, #140 ), #213, .T. ) ;
#174 = CARTESIAN_POINT ( 'NONE',  ( 2.758270257686075477E-13, 2.399615652258957393E-32, 79.00000000000000000 ) ) ;
#175 = DIRECTION ( 'NONE',  ( -3.491481338843133355E-15, 1.224646799147353207E-16, -1.000000000000000000 ) ) ;
#176 = EDGE_LOOP ( 'NONE', ( #170 ) ) ;
#177 = AXIS2_PLACEMENT_3D ( 'NONE', #26, #209, #99 ) ;
#178 = DIRECTION ( 'NONE',  ( 0.0000000000000000000, 1.000000000000000000, 0.0000000000000000000 ) ) ;
#179 = CARTESIAN_POINT ( 'NONE',  ( 1.012529588264508673E-13, 2.999519565323705363E-32, 29.00000000000000000 ) ) ;
#180 = CALENDAR_DATE ( 2021, 13, 10 ) ;
#181 = APPROVAL_PERSON_ORGANIZATION ( #154, #151, #225 ) ;
#182 = DIRECTION ( 'NONE',  ( 1.000000000000000000, 0.0000000000000000000, 0.0000000000000000000 ) ) ;
#183 = PERSON_AND_ORGANIZATION_ROLE ( 'classification_officer' ) ;
#184 = EDGE_LOOP ( 'NONE', ( #11 ) ) ;
#185 = ADVANCED_FACE ( 'NONE', ( #66 ), #59, .T. ) ;
#186 = DATE_AND_TIME ( #169, #91 ) ;
#187 = ORIENTED_EDGE ( 'NONE', *, *, #144, .F. ) ;
#188 = AXIS2_PLACEMENT_3D ( 'NONE', #17, #124, #165 ) ;
#189 = DIRECTION ( 'NONE',  ( -3.851859888774481340E-31, -1.000000000000000000, -1.084202172485507146E-16 ) ) ;
#190 = CONICAL_SURFACE ( 'NONE', #113, 3.199999999999999289, 0.7853981633974599363 ) ;
#191 = CC_DESIGN_DATE_AND_TIME_ASSIGNMENT ( #149, #114, ( #63 ) ) ;
#192 = PLANE ( 'NONE',  #171 ) ;
#193 = FACE_OUTER_BOUND ( 'NONE', #35, .T. ) ;
#194 = CARTESIAN_POINT ( 'NONE',  ( 1.012529588264508673E-13, 2.999519565323705363E-32, 29.00000000000000000 ) ) ;
#195 = FACE_OUTER_BOUND ( 'NONE', #27, .T. ) ;
#196 = APPROVAL_ROLE ( '' ) ;
#197 = VERTEX_POINT ( 'NONE', #217 ) ;
#198 = APPLICATION_PROTOCOL_DEFINITION ( 'international standard', 'config_control_design', 1994, #158 ) ;
#199 = DIRECTION ( 'NONE',  ( -3.491481338843133355E-15, 1.224646799147353207E-16, -1.000000000000000000 ) ) ;
#200 = VERTEX_POINT ( 'NONE', #167 ) ;
#201 = PERSON ( 'UNSPECIFIED', 'UNSPECIFIED', 'UNSPECIFIED', ('UNSPECIFIED'), ('UNSPECIFIED'), ('UNSPECIFIED') ) ;
#202 = PERSON_AND_ORGANIZATION ( #201, #10 ) ;
#203 = AXIS2_PLACEMENT_3D ( 'NONE', #229, #116, #189 ) ;
#204 = ADVANCED_FACE ( 'NONE', ( #221, #51 ), #146, .F. ) ;
#205 = ORIENTED_EDGE ( 'NONE', *, *, #224, .T. ) ;
#206 = CC_DESIGN_APPROVAL ( #56, ( #43 ) ) ;
#207 = COORDINATED_UNIVERSAL_TIME_OFFSET ( 1, 0, .AHEAD. ) ;
#208 = DIRECTION ( 'NONE',  ( -3.491481338843133355E-15, 1.224646799147353207E-16, -1.000000000000000000 ) ) ;
#209 = DIRECTION ( 'NONE',  ( -3.491481338843133355E-15, 1.224646799147353207E-16, -1.000000000000000000 ) ) ;
#210 = CLOSED_SHELL ( 'NONE', ( #166, #214, #77, #128, #204, #147 ) ) ;
#211 = CIRCLE ( 'NONE', #160, 3.999999999999996447 ) ;
#212 = DIRECTION ( 'NONE',  ( -4.275831445896958607E-31, -1.000000000000000000, -1.224646799147353207E-16 ) ) ;
#213 = CYLINDRICAL_SURFACE ( 'NONE', #237, 3.900000000000006128 ) ;
#214 = ADVANCED_FACE ( 'NONE', ( #145, #148 ), #190, .T. ) ;
#215 = EDGE_LOOP ( 'NONE', ( #54 ) ) ;
#216 = APPROVAL_PERSON_ORGANIZATION ( #40, #56, #57 ) ;
#217 = CARTESIAN_POINT ( 'NONE',  ( 2.730338406975331420E-13, 3.999999999999989786, 78.20000000000001705 ) ) ;
#218 = VERTEX_POINT ( 'NONE', #18 ) ;
#219 = VERTEX_POINT ( 'NONE', #88 ) ;
#220 = CIRCLE ( 'NONE', #117, 3.199999999999999289 ) ;
#221 = FACE_OUTER_BOUND ( 'NONE', #115, .T. ) ;
#222 = PERSON_AND_ORGANIZATION_ROLE ( 'design_supplier' ) ;
#223 = EDGE_LOOP ( 'NONE', ( #55 ) ) ;
#224 = EDGE_CURVE ( 'NONE', #142, #142, #5, .T. ) ;
#225 = APPROVAL_ROLE ( '' ) ;
#226 = DATE_TIME_ROLE ( 'creation_date' ) ;
#227 = LOCAL_TIME ( 13, 36, 14.00000000000000000, #207 ) ;
#228 = ORIENTED_EDGE ( 'NONE', *, *, #70, .F. ) ;
#229 = CARTESIAN_POINT ( 'NONE',  ( 5.083181123339289718E-15, -1.782939929516086737E-16, 1.455880937064824687 ) ) ;
#230 = DIRECTION ( 'NONE',  ( -3.491481338843133355E-15, 1.224646799147353207E-16, -1.000000000000000000 ) ) ;
#231 = MANIFOLD_SOLID_BREP ( 'Corps-Déplacer/Copier1[2]', #48 ) ;
#232 = DIRECTION ( 'NONE',  ( 3.491481338843133355E-15, -1.224646799147353207E-16, 1.000000000000000000 ) ) ;
#233 = AXIS2_PLACEMENT_3D ( 'NONE', #108, #90, #182 ) ;
#234 = PLANE ( 'NONE',  #78 ) ;
#235 = DIRECTION ( 'NONE',  ( 1.510825004591027855E-30, 1.000000000000000000, 4.327174794786742882E-16 ) ) ;
#236 = APPLICATION_PROTOCOL_DEFINITION ( 'international standard', 'config_control_design', 1994, #12 ) ;
#237 = AXIS2_PLACEMENT_3D ( 'NONE', #141, #45, #235 ) ;
#238 =( NAMED_UNIT ( * ) PLANE_ANGLE_UNIT ( ) SI_UNIT ( $, .RADIAN. ) );
#239 = CIRCLE ( 'NONE', #68, 3.999999999999999112 ) ;
#240 = DIRECTION ( 'NONE',  ( -3.491481338843133355E-15, 4.327174794786742882E-16, -1.000000000000000000 ) ) ;
#241 = CALENDAR_DATE ( 2021, 13, 10 ) ;
#242 = CALENDAR_DATE ( 2021, 13, 10 ) ;
#243 = EDGE_LOOP ( 'NONE', ( #36 ) ) ;
ENDSEC;
END-ISO-10303-21;
