ISO-10303-21;
HEADER;
FILE_DESCRIPTION (( 'STEP AP203' ),
    '1' );
FILE_NAME ('43542.step',
    '2021-10-13T11:36:14',
    ( '' ),
    ( '' ),
    'SwSTEP 2.0',
    'SolidWorks 2019',
    '' );
FILE_SCHEMA (( 'CONFIG_CONTROL_DESIGN' ));
ENDSEC;

DATA;
#1 = AXIS2_PLACEMENT_3D ( 'NONE', #11, #182, #33 ) ;
#2 = CARTESIAN_POINT ( 'NONE',  ( 5.083181123339289718E-15, -1.782939929516086737E-16, 1.455880937064824687 ) ) ;
#3 = ORIENTED_EDGE ( 'NONE', *, *, #36, .F. ) ;
#4 = AXIS2_PLACEMENT_3D ( 'NONE', #227, #82, #114 ) ;
#5 = PERSON_AND_ORGANIZATION_ROLE ( 'creator' ) ;
#6 = DATE_AND_TIME ( #152, #58 ) ;
#7 = CARTESIAN_POINT ( 'NONE',  ( 1.451303604632728614E-13, -1.798676197315926650E-14, 41.56698729810777593 ) ) ;
#8 = LOCAL_TIME ( 13, 36, 14.00000000000000000, #136 ) ;
#9 = CARTESIAN_POINT ( 'NONE',  ( 1.012529588264508673E-13, -1.254880690488155436E-14, 29.00000000000000000 ) ) ;
#10 = EDGE_CURVE ( 'NONE', #105, #105, #17, .T. ) ;
#11 = CARTESIAN_POINT ( 'NONE',  ( 2.758270257686075477E-13, -9.674709713264090904E-15, 79.00000000000000000 ) ) ;
#12 = ADVANCED_BREP_SHAPE_REPRESENTATION ( '43542', ( #75, #171, #40 ), #18 ) ;
#13 = FACE_OUTER_BOUND ( 'NONE', #229, .T. ) ;
#14 = CARTESIAN_POINT ( 'NONE',  ( 0.0000000000000000000, 0.0000000000000000000, 0.0000000000000000000 ) ) ;
#15 = CALENDAR_DATE ( 2021, 13, 10 ) ;
#16 = CARTESIAN_POINT ( 'NONE',  ( 2.758270257686075477E-13, 3.199999999999989964, 79.00000000000000000 ) ) ;
#17 = CIRCLE ( 'NONE', #174, 3.999999999999996447 ) ;
#18 =( GEOMETRIC_REPRESENTATION_CONTEXT ( 3 ) GLOBAL_UNCERTAINTY_ASSIGNED_CONTEXT ( ( #186 ) ) GLOBAL_UNIT_ASSIGNED_CONTEXT ( ( #142, #104, #226 ) ) REPRESENTATION_CONTEXT ( 'NONE', 'WORKASPACE' ) );
#19 = PERSON_AND_ORGANIZATION_ROLE ( 'design_owner' ) ;
#20 = EDGE_LOOP ( 'NONE', ( #168 ) ) ;
#21 = ORIENTED_EDGE ( 'NONE', *, *, #124, .F. ) ;
#22 = AXIS2_PLACEMENT_3D ( 'NONE', #128, #256, #73 ) ;
#23 = DIRECTION ( 'NONE',  ( 0.0000000000000000000, -1.000000000000000000, 0.0000000000000000000 ) ) ;
#24 = APPROVAL_STATUS ( 'not_yet_approved' ) ;
#25 = APPROVAL_DATE_TIME ( #148, #39 ) ;
#26 = CC_DESIGN_APPROVAL ( #39, ( #215 ) ) ;
#27 = ADVANCED_FACE ( 'NONE', ( #248 ), #76, .F. ) ;
#28 = APPROVAL_ROLE ( '' ) ;
#29 = DIRECTION ( 'NONE',  ( 1.510825004591027855E-30, 1.000000000000000000, 4.327174794786742882E-16 ) ) ;
#30 = CARTESIAN_POINT ( 'NONE',  ( 2.730338406975331420E-13, -9.576737969332304047E-15, 78.20000000000001705 ) ) ;
#31 = AXIS2_PLACEMENT_3D ( 'NONE', #93, #197, #201 ) ;
#32 = CARTESIAN_POINT ( 'NONE',  ( 2.758270257686075477E-13, -9.674709713264090904E-15, 79.00000000000000000 ) ) ;
#33 = DIRECTION ( 'NONE',  ( 0.0000000000000000000, 1.000000000000000000, 0.0000000000000000000 ) ) ;
#34 = FACE_OUTER_BOUND ( 'NONE', #262, .T. ) ;
#35 = CIRCLE ( 'NONE', #49, 3.883974596215576280 ) ;
#36 = EDGE_CURVE ( 'NONE', #189, #189, #51, .T. ) ;
#37 = ORIENTED_EDGE ( 'NONE', *, *, #56, .T. ) ;
#38 = DIRECTION ( 'NONE',  ( 1.000000000000000000, 0.0000000000000000000, 0.0000000000000000000 ) ) ;
#39 = APPROVAL ( #24, 'UNSPECIFIED' ) ;
#40 = AXIS2_PLACEMENT_3D ( 'NONE', #85, #165, #38 ) ;
#41 = DESIGN_CONTEXT ( 'detailed design', #54, 'design' ) ;
#42 = EDGE_LOOP ( 'NONE', ( #44 ) ) ;
#43 = DIRECTION ( 'NONE',  ( -3.491481338843133355E-15, 4.327174794786742882E-16, -1.000000000000000000 ) ) ;
#44 = ORIENTED_EDGE ( 'NONE', *, *, #156, .F. ) ;
#45 = ORIENTED_EDGE ( 'NONE', *, *, #133, .F. ) ;
#46 = CIRCLE ( 'NONE', #178, 3.750000000000005773 ) ;
#47 = PERSON_AND_ORGANIZATION_ROLE ( 'creator' ) ;
#48 = DATE_TIME_ROLE ( 'creation_date' ) ;
#49 = AXIS2_PLACEMENT_3D ( 'NONE', #238, #255, #159 ) ;
#50 = PLANE ( 'NONE',  #22 ) ;
#51 = CIRCLE ( 'NONE', #126, 3.199999999999999289 ) ;
#52 = CC_DESIGN_APPROVAL ( #172, ( #122 ) ) ;
#53 = DIRECTION ( 'NONE',  ( -3.491481338843133355E-15, 1.224646799147353207E-16, -1.000000000000000000 ) ) ;
#54 = APPLICATION_CONTEXT ( 'configuration controlled 3d designs of mechanical parts and assemblies' ) ;
#55 = CARTESIAN_POINT ( 'NONE',  ( 1.396592535537253090E-13, -1.734723475976807094E-14, 39.99999999999999289 ) ) ;
#56 = EDGE_CURVE ( 'NONE', #62, #62, #144, .T. ) ;
#57 = APPROVAL_ROLE ( '' ) ;
#58 = LOCAL_TIME ( 13, 36, 14.00000000000000000, #177 ) ;
#59 = DIRECTION ( 'NONE',  ( 3.491481338843133355E-15, -1.224646799147353207E-16, 1.000000000000000000 ) ) ;
#60 = APPROVAL ( #169, 'UNSPECIFIED' ) ;
#61 = FACE_OUTER_BOUND ( 'NONE', #120, .T. ) ;
#62 = VERTEX_POINT ( 'NONE', #78 ) ;
#63 = TOROIDAL_SURFACE ( 'NONE', #158, 4.750000000000012434, 0.9999999999999978906 ) ;
#64 = PERSON_AND_ORGANIZATION ( #117, #188 ) ;
#65 = PERSON_AND_ORGANIZATION ( #117, #188 ) ;
#66 = CC_DESIGN_DATE_AND_TIME_ASSIGNMENT ( #196, #216, ( #122 ) ) ;
#67 = ORIENTED_EDGE ( 'NONE', *, *, #10, .F. ) ;
#68 = SECURITY_CLASSIFICATION_LEVEL ( 'unclassified' ) ;
#69 = AXIS2_PLACEMENT_3D ( 'NONE', #259, #219, #113 ) ;
#70 = APPROVAL_ROLE ( '' ) ;
#71 = DIRECTION ( 'NONE',  ( -3.491481338843133355E-15, 4.327174794786742882E-16, -1.000000000000000000 ) ) ;
#72 = PRODUCT_RELATED_PRODUCT_CATEGORY ( 'detail', '', ( #234 ) ) ;
#73 = DIRECTION ( 'NONE',  ( 4.275831445896958607E-31, 1.000000000000000000, 1.224646799147353207E-16 ) ) ;
#74 = APPROVAL_PERSON_ORGANIZATION ( #64, #60, #57 ) ;
#75 = MANIFOLD_SOLID_BREP ( 'Corps-Déplacer/Copier1[1]', #100 ) ;
#76 = PLANE ( 'NONE',  #95 ) ;
#77 = FACE_BOUND ( 'NONE', #210, .T. ) ;
#78 = CARTESIAN_POINT ( 'NONE',  ( 1.012529588264508673E-13, -3.750000000000018652, 29.00000000000000000 ) ) ;
#79 = CONICAL_SURFACE ( 'NONE', #230, 4.500000000000013323, 0.5235987755982982605 ) ;
#80 = MECHANICAL_CONTEXT ( 'NONE', #141, 'mechanical' ) ;
#81 = EDGE_LOOP ( 'NONE', ( #149 ) ) ;
#82 = DIRECTION ( 'NONE',  ( -3.491481338843133355E-15, 1.224646799147353207E-16, -1.000000000000000000 ) ) ;
#83 = APPLICATION_PROTOCOL_DEFINITION ( 'international standard', 'config_control_design', 1994, #54 ) ;
#84 = AXIS2_PLACEMENT_3D ( 'NONE', #14, #71, #98 ) ;
#85 = CARTESIAN_POINT ( 'NONE',  ( 0.0000000000000000000, 0.0000000000000000000, 0.0000000000000000000 ) ) ;
#86 = EDGE_LOOP ( 'NONE', ( #45 ) ) ;
#87 = CALENDAR_DATE ( 2021, 13, 10 ) ;
#88 = ADVANCED_FACE ( 'NONE', ( #236 ), #200, .T. ) ;
#89 = CC_DESIGN_PERSON_AND_ORGANIZATION_ASSIGNMENT ( #251, #5, ( #108 ) ) ;
#90 = CALENDAR_DATE ( 2021, 13, 10 ) ;
#91 = APPROVAL_PERSON_ORGANIZATION ( #127, #39, #70 ) ;
#92 = DIRECTION ( 'NONE',  ( -3.491481338843133355E-15, 4.327174794786742882E-16, -1.000000000000000000 ) ) ;
#93 = CARTESIAN_POINT ( 'NONE',  ( 1.012529588264508673E-13, 2.999519565323705363E-32, 29.00000000000000000 ) ) ;
#94 = FACE_OUTER_BOUND ( 'NONE', #123, .T. ) ;
#95 = AXIS2_PLACEMENT_3D ( 'NONE', #198, #179, #185 ) ;
#96 = DIRECTION ( 'NONE',  ( -3.491481338843133355E-15, 1.224646799147353207E-16, -1.000000000000000000 ) ) ;
#97 = CIRCLE ( 'NONE', #137, 3.750000000000005773 ) ;
#98 = DIRECTION ( 'NONE',  ( 1.510825004591028030E-30, 1.000000000000000000, 4.327174794786742882E-16 ) ) ;
#99 = ORIENTED_EDGE ( 'NONE', *, *, #124, .T. ) ;
#100 = CLOSED_SHELL ( 'NONE', ( #250, #190, #195, #257, #180, #221, #27 ) ) ;
#101 = LOCAL_TIME ( 13, 36, 14.00000000000000000, #211 ) ;
#102 = APPLICATION_PROTOCOL_DEFINITION ( 'international standard', 'config_control_design', 1994, #141 ) ;
#103 = EDGE_LOOP ( 'NONE', ( #21 ) ) ;
#104 =( NAMED_UNIT ( * ) PLANE_ANGLE_UNIT ( ) SI_UNIT ( $, .RADIAN. ) );
#105 = VERTEX_POINT ( 'NONE', #207 ) ;
#106 = ORIENTED_EDGE ( 'NONE', *, *, #36, .T. ) ;
#107 = SHAPE_DEFINITION_REPRESENTATION ( #164, #12 ) ;
#108 = PRODUCT_DEFINITION ( 'UNKNOWN', '', #215, #41 ) ;
#109 = APPROVAL_STATUS ( 'not_yet_approved' ) ;
#110 = PERSON_AND_ORGANIZATION_ROLE ( 'classification_officer' ) ;
#111 = FACE_BOUND ( 'NONE', #42, .T. ) ;
#112 = CARTESIAN_POINT ( 'NONE',  ( 4.765482303130603832E-15, -1.671506183921338188E-16, 1.364888378498278820 ) ) ;
#113 = DIRECTION ( 'NONE',  ( 0.0000000000000000000, -1.000000000000000000, 0.0000000000000000000 ) ) ;
#114 = DIRECTION ( 'NONE',  ( 4.275831445896957731E-31, 1.000000000000000000, 1.224646799147353207E-16 ) ) ;
#115 = FACE_OUTER_BOUND ( 'NONE', #103, .T. ) ;
#116 = LOCAL_TIME ( 13, 36, 14.00000000000000000, #125 ) ;
#117 = PERSON ( 'UNSPECIFIED', 'UNSPECIFIED', 'UNSPECIFIED', ('UNSPECIFIED'), ('UNSPECIFIED'), ('UNSPECIFIED') ) ;
#118 = EDGE_LOOP ( 'NONE', ( #161 ) ) ;
#119 = FACE_OUTER_BOUND ( 'NONE', #208, .T. ) ;
#120 = EDGE_LOOP ( 'NONE', ( #247 ) ) ;
#121 = DATE_AND_TIME ( #15, #8 ) ;
#122 = SECURITY_CLASSIFICATION ( '', '', #68 ) ;
#123 = EDGE_LOOP ( 'NONE', ( #3 ) ) ;
#124 = EDGE_CURVE ( 'NONE', #140, #140, #97, .T. ) ;
#125 = COORDINATED_UNIVERSAL_TIME_OFFSET ( 1, 0, .AHEAD. ) ;
#126 = AXIS2_PLACEMENT_3D ( 'NONE', #32, #129, #260 ) ;
#127 = PERSON_AND_ORGANIZATION ( #117, #188 ) ;
#128 = CARTESIAN_POINT ( 'NONE',  ( 2.758270257686075477E-13, 2.399615652258957393E-32, 79.00000000000000000 ) ) ;
#129 = DIRECTION ( 'NONE',  ( -3.491481338843133355E-15, 1.224646799147353207E-16, -1.000000000000000000 ) ) ;
#130 = CONICAL_SURFACE ( 'NONE', #1, 3.199999999999999289, 0.7853981633974599363 ) ;
#131 = ADVANCED_FACE ( 'NONE', ( #34, #217 ), #160, .T. ) ;
#132 = DIRECTION ( 'NONE',  ( 0.0000000000000000000, -1.000000000000000000, 0.0000000000000000000 ) ) ;
#133 = EDGE_CURVE ( 'NONE', #209, #209, #163, .T. ) ;
#134 = FACE_OUTER_BOUND ( 'NONE', #224, .T. ) ;
#135 = DIRECTION ( 'NONE',  ( -3.491481338843133355E-15, 4.327174794786742882E-16, -1.000000000000000000 ) ) ;
#136 = COORDINATED_UNIVERSAL_TIME_OFFSET ( 1, 0, .AHEAD. ) ;
#137 = AXIS2_PLACEMENT_3D ( 'NONE', #9, #53, #132 ) ;
#138 = CC_DESIGN_PERSON_AND_ORGANIZATION_ASSIGNMENT ( #65, #110, ( #122 ) ) ;
#139 = EDGE_LOOP ( 'NONE', ( #99 ) ) ;
#140 = VERTEX_POINT ( 'NONE', #223 ) ;
#141 = APPLICATION_CONTEXT ( 'configuration controlled 3d designs of mechanical parts and assemblies' ) ;
#142 =( LENGTH_UNIT ( ) NAMED_UNIT ( * ) SI_UNIT ( .MILLI., .METRE. ) );
#143 = CARTESIAN_POINT ( 'NONE',  ( 1.414049942231468946E-13, 3.883974596215558961, 40.49999999999999289 ) ) ;
#144 = CIRCLE ( 'NONE', #69, 3.750000000000005773 ) ;
#145 = CC_DESIGN_PERSON_AND_ORGANIZATION_ASSIGNMENT ( #166, #19, ( #234 ) ) ;
#146 = FACE_OUTER_BOUND ( 'NONE', #20, .T. ) ;
#147 = DIRECTION ( 'NONE',  ( 3.491481338843133355E-15, -4.327174794786742882E-16, 1.000000000000000000 ) ) ;
#148 = DATE_AND_TIME ( #90, #116 ) ;
#149 = ORIENTED_EDGE ( 'NONE', *, *, #56, .F. ) ;
#150 = PERSON_AND_ORGANIZATION ( #117, #188 ) ;
#151 = CC_DESIGN_PERSON_AND_ORGANIZATION_ASSIGNMENT ( #150, #231, ( #215 ) ) ;
#152 = CALENDAR_DATE ( 2021, 13, 10 ) ;
#153 = APPROVAL_DATE_TIME ( #254, #172 ) ;
#154 = EDGE_CURVE ( 'NONE', #245, #245, #252, .T. ) ;
#155 = FACE_OUTER_BOUND ( 'NONE', #86, .T. ) ;
#156 = EDGE_CURVE ( 'NONE', #191, #191, #35, .T. ) ;
#157 = DIRECTION ( 'NONE',  ( -3.491481338843133355E-15, 1.224646799147353207E-16, -1.000000000000000000 ) ) ;
#158 = AXIS2_PLACEMENT_3D ( 'NONE', #55, #135, #29 ) ;
#159 = DIRECTION ( 'NONE',  ( 0.0000000000000000000, 1.000000000000000000, 0.0000000000000000000 ) ) ;
#160 = CYLINDRICAL_SURFACE ( 'NONE', #84, 3.750000000000005773 ) ;
#161 = ORIENTED_EDGE ( 'NONE', *, *, #154, .F. ) ;
#162 = CARTESIAN_POINT ( 'NONE',  ( 1.396592535537253342E-13, 3.749999999999995115, 40.00000000000000000 ) ) ;
#163 = CIRCLE ( 'NONE', #167, 3.999999999999999112 ) ;
#164 = PRODUCT_DEFINITION_SHAPE ( 'NONE', 'NONE',  #108 ) ;
#165 = DIRECTION ( 'NONE',  ( 0.0000000000000000000, 0.0000000000000000000, 1.000000000000000000 ) ) ;
#166 = PERSON_AND_ORGANIZATION ( #117, #188 ) ;
#167 = AXIS2_PLACEMENT_3D ( 'NONE', #30, #96, #181 ) ;
#168 = ORIENTED_EDGE ( 'NONE', *, *, #133, .T. ) ;
#169 = APPROVAL_STATUS ( 'not_yet_approved' ) ;
#170 = CARTESIAN_POINT ( 'NONE',  ( 1.421066489269952813E-13, -1.761201764326914984E-14, 40.70096189432330647 ) ) ;
#171 = MANIFOLD_SOLID_BREP ( 'Corps-Déplacer/Copier1[2]', #214 ) ;
#172 = APPROVAL ( #109, 'UNSPECIFIED' ) ;
#173 = CALENDAR_DATE ( 2021, 13, 10 ) ;
#174 = AXIS2_PLACEMENT_3D ( 'NONE', #170, #147, #23 ) ;
#175 = APPROVAL_PERSON_ORGANIZATION ( #213, #172, #28 ) ;
#176 = PERSON_AND_ORGANIZATION ( #117, #188 ) ;
#177 = COORDINATED_UNIVERSAL_TIME_OFFSET ( 1, 0, .AHEAD. ) ;
#178 = AXIS2_PLACEMENT_3D ( 'NONE', #112, #157, #237 ) ;
#179 = DIRECTION ( 'NONE',  ( 3.491481338843133355E-15, -1.224646799147353207E-16, 1.000000000000000000 ) ) ;
#180 = ADVANCED_FACE ( 'NONE', ( #111, #134 ), #79, .T. ) ;
#181 = DIRECTION ( 'NONE',  ( 0.0000000000000000000, 1.000000000000000000, 0.0000000000000000000 ) ) ;
#182 = DIRECTION ( 'NONE',  ( -3.491481338843133355E-15, 1.224646799147353207E-16, -1.000000000000000000 ) ) ;
#183 = LOCAL_TIME ( 13, 36, 14.00000000000000000, #253 ) ;
#184 = FACE_OUTER_BOUND ( 'NONE', #194, .T. ) ;
#185 = DIRECTION ( 'NONE',  ( -4.275831445896958607E-31, -1.000000000000000000, -1.224646799147353207E-16 ) ) ;
#186 = UNCERTAINTY_MEASURE_WITH_UNIT (LENGTH_MEASURE( 1.000000000000000082E-05 ), #142, 'distance_accuracy_value', 'NONE');
#187 = DIRECTION ( 'NONE',  ( -3.851859888774481340E-31, -1.000000000000000000, -1.084202172485507146E-16 ) ) ;
#188 = ORGANIZATION ( 'UNSPECIFIED', 'UNSPECIFIED', '' ) ;
#189 = VERTEX_POINT ( 'NONE', #16 ) ;
#190 = ADVANCED_FACE ( 'NONE', ( #155, #77 ), #130, .T. ) ;
#191 = VERTEX_POINT ( 'NONE', #143 ) ;
#192 = EDGE_LOOP ( 'NONE', ( #202 ) ) ;
#193 = CARTESIAN_POINT ( 'NONE',  ( 2.730338406975331420E-13, 3.999999999999989786, 78.20000000000001705 ) ) ;
#194 = EDGE_LOOP ( 'NONE', ( #204 ) ) ;
#195 = ADVANCED_FACE ( 'NONE', ( #94 ), #50, .F. ) ;
#196 = DATE_AND_TIME ( #87, #101 ) ;
#197 = DIRECTION ( 'NONE',  ( 3.491481338843133355E-15, -1.224646799147353207E-16, 1.000000000000000000 ) ) ;
#198 = CARTESIAN_POINT ( 'NONE',  ( 1.012529588264508673E-13, 2.999519565323705363E-32, 29.00000000000000000 ) ) ;
#199 = DIRECTION ( 'NONE',  ( 3.491481338843133355E-15, -4.327174794786742882E-16, 1.000000000000000000 ) ) ;
#200 = PLANE ( 'NONE',  #31 ) ;
#201 = DIRECTION ( 'NONE',  ( -4.275831445896958607E-31, -1.000000000000000000, -1.224646799147353207E-16 ) ) ;
#202 = ORIENTED_EDGE ( 'NONE', *, *, #203, .F. ) ;
#203 = EDGE_CURVE ( 'NONE', #205, #205, #46, .T. ) ;
#204 = ORIENTED_EDGE ( 'NONE', *, *, #203, .T. ) ;
#205 = VERTEX_POINT ( 'NONE', #241 ) ;
#206 = ORIENTED_EDGE ( 'NONE', *, *, #156, .T. ) ;
#207 = CARTESIAN_POINT ( 'NONE',  ( 1.421066489269952813E-13, -4.000000000000014211, 40.70096189432330647 ) ) ;
#208 = EDGE_LOOP ( 'NONE', ( #228 ) ) ;
#209 = VERTEX_POINT ( 'NONE', #193 ) ;
#210 = EDGE_LOOP ( 'NONE', ( #106 ) ) ;
#211 = COORDINATED_UNIVERSAL_TIME_OFFSET ( 1, 0, .AHEAD. ) ;
#212 = AXIS2_PLACEMENT_3D ( 'NONE', #242, #43, #243 ) ;
#213 = PERSON_AND_ORGANIZATION ( #117, #188 ) ;
#214 = CLOSED_SHELL ( 'NONE', ( #239, #131, #88 ) ) ;
#215 = PRODUCT_DEFINITION_FORMATION_WITH_SPECIFIED_SOURCE ( 'ANY', '', #234, .NOT_KNOWN. ) ;
#216 = DATE_TIME_ROLE ( 'classification_date' ) ;
#217 = FACE_OUTER_BOUND ( 'NONE', #192, .T. ) ;
#218 = CC_DESIGN_APPROVAL ( #60, ( #108 ) ) ;
#219 = DIRECTION ( 'NONE',  ( -3.491481338843133355E-15, 1.224646799147353207E-16, -1.000000000000000000 ) ) ;
#220 = DIRECTION ( 'NONE',  ( 0.0000000000000000000, -1.000000000000000000, 0.0000000000000000000 ) ) ;
#221 = ADVANCED_FACE ( 'NONE', ( #235, #13 ), #63, .F. ) ;
#222 = CYLINDRICAL_SURFACE ( 'NONE', #212, 3.750000000000005773 ) ;
#223 = CARTESIAN_POINT ( 'NONE',  ( 1.012529588264508673E-13, -3.750000000000018652, 29.00000000000000000 ) ) ;
#224 = EDGE_LOOP ( 'NONE', ( #67 ) ) ;
#225 = AXIS2_PLACEMENT_3D ( 'NONE', #2, #59, #187 ) ;
#226 =( NAMED_UNIT ( * ) SI_UNIT ( $, .STERADIAN. ) SOLID_ANGLE_UNIT ( ) );
#227 = CARTESIAN_POINT ( 'NONE',  ( 0.0000000000000000000, 0.0000000000000000000, 0.0000000000000000000 ) ) ;
#228 = ORIENTED_EDGE ( 'NONE', *, *, #10, .T. ) ;
#229 = EDGE_LOOP ( 'NONE', ( #206 ) ) ;
#230 = AXIS2_PLACEMENT_3D ( 'NONE', #7, #199, #220 ) ;
#231 = PERSON_AND_ORGANIZATION_ROLE ( 'design_supplier' ) ;
#232 = CC_DESIGN_SECURITY_CLASSIFICATION ( #122, ( #215 ) ) ;
#233 = DIRECTION ( 'NONE',  ( 0.0000000000000000000, 1.000000000000000000, 0.0000000000000000000 ) ) ;
#234 = PRODUCT ( '43542', '43542', '', ( #80 ) ) ;
#235 = FACE_OUTER_BOUND ( 'NONE', #118, .T. ) ;
#236 = FACE_OUTER_BOUND ( 'NONE', #81, .T. ) ;
#237 = DIRECTION ( 'NONE',  ( -4.108650548026096439E-31, -1.000000000000000000, -1.156482317317869506E-16 ) ) ;
#238 = CARTESIAN_POINT ( 'NONE',  ( 1.414049942231468946E-13, -1.752505791888630709E-14, 40.49999999999999289 ) ) ;
#239 = ADVANCED_FACE ( 'NONE', ( #184 ), #240, .T. ) ;
#240 = CONICAL_SURFACE ( 'NONE', #225, 3.999999999999989786, 1.221730476396026610 ) ;
#241 = CARTESIAN_POINT ( 'NONE',  ( 4.765482303130602254E-15, -3.750000000000005773, 1.364888378498278376 ) ) ;
#242 = CARTESIAN_POINT ( 'NONE',  ( 0.0000000000000000000, 0.0000000000000000000, 0.0000000000000000000 ) ) ;
#243 = DIRECTION ( 'NONE',  ( 1.510825004591028030E-30, 1.000000000000000000, 4.327174794786742882E-16 ) ) ;
#244 = AXIS2_PLACEMENT_3D ( 'NONE', #261, #92, #233 ) ;
#245 = VERTEX_POINT ( 'NONE', #162 ) ;
#246 = CC_DESIGN_DATE_AND_TIME_ASSIGNMENT ( #6, #48, ( #108 ) ) ;
#247 = ORIENTED_EDGE ( 'NONE', *, *, #154, .T. ) ;
#248 = FACE_OUTER_BOUND ( 'NONE', #139, .T. ) ;
#249 = APPROVAL_DATE_TIME ( #121, #60 ) ;
#250 = ADVANCED_FACE ( 'NONE', ( #119, #146 ), #263, .T. ) ;
#251 = PERSON_AND_ORGANIZATION ( #117, #188 ) ;
#252 = CIRCLE ( 'NONE', #244, 3.750000000000012434 ) ;
#253 = COORDINATED_UNIVERSAL_TIME_OFFSET ( 1, 0, .AHEAD. ) ;
#254 = DATE_AND_TIME ( #173, #183 ) ;
#255 = DIRECTION ( 'NONE',  ( -3.491481338843133355E-15, 4.327174794786742882E-16, -1.000000000000000000 ) ) ;
#256 = DIRECTION ( 'NONE',  ( -3.491481338843133355E-15, 1.224646799147353207E-16, -1.000000000000000000 ) ) ;
#257 = ADVANCED_FACE ( 'NONE', ( #61, #115 ), #222, .T. ) ;
#258 = CC_DESIGN_PERSON_AND_ORGANIZATION_ASSIGNMENT ( #176, #47, ( #215 ) ) ;
#259 = CARTESIAN_POINT ( 'NONE',  ( 1.012529588264508673E-13, -1.254880690488155436E-14, 29.00000000000000000 ) ) ;
#260 = DIRECTION ( 'NONE',  ( 0.0000000000000000000, 1.000000000000000000, 0.0000000000000000000 ) ) ;
#261 = CARTESIAN_POINT ( 'NONE',  ( 1.396592535537253342E-13, -1.730869917914697153E-14, 40.00000000000000000 ) ) ;
#262 = EDGE_LOOP ( 'NONE', ( #37 ) ) ;
#263 = CYLINDRICAL_SURFACE ( 'NONE', #4, 3.999999999999996447 ) ;
ENDSEC;
END-ISO-10303-21;
