ISO-10303-21;
HEADER;
FILE_DESCRIPTION (( 'STEP AP203' ),
    '1' );
FILE_NAME ('43539.step',
    '2021-10-13T11:36:12',
    ( '' ),
    ( '' ),
    'SwSTEP 2.0',
    'SolidWorks 2019',
    '' );
FILE_SCHEMA (( 'CONFIG_CONTROL_DESIGN' ));
ENDSEC;

DATA;
#1 = FACE_OUTER_BOUND ( 'NONE', #182, .T. ) ;
#2 = FACE_OUTER_BOUND ( 'NONE', #109, .T. ) ;
#3 = FACE_OUTER_BOUND ( 'NONE', #31, .T. ) ;
#4 = CIRCLE ( 'NONE', #43, 3.300000000000005151 ) ;
#5 = PRODUCT_DEFINITION_FORMATION_WITH_SPECIFIED_SOURCE ( 'ANY', '', #79, .NOT_KNOWN. ) ;
#6 = DIRECTION ( 'NONE',  ( -3.491481338843133355E-15, 4.327174794786742882E-16, -1.000000000000000000 ) ) ;
#7 = VERTEX_POINT ( 'NONE', #60 ) ;
#8 = CARTESIAN_POINT ( 'NONE',  ( 2.730338406975331420E-13, 3.999999999999989786, 78.20000000000001705 ) ) ;
#9 = DATE_AND_TIME ( #30, #263 ) ;
#10 = ORIENTED_EDGE ( 'NONE', *, *, #35, .F. ) ;
#11 = EDGE_LOOP ( 'NONE', ( #37 ) ) ;
#12 = APPROVAL_DATE_TIME ( #9, #159 ) ;
#13 = EDGE_LOOP ( 'NONE', ( #10 ) ) ;
#14 = PERSON ( 'UNSPECIFIED', 'UNSPECIFIED', 'UNSPECIFIED', ('UNSPECIFIED'), ('UNSPECIFIED'), ('UNSPECIFIED') ) ;
#15 = TOROIDAL_SURFACE ( 'NONE', #71, 4.300000000000010481, 0.9999999999999995559 ) ;
#16 = AXIS2_PLACEMENT_3D ( 'NONE', #119, #75, #261 ) ;
#17 = ORIENTED_EDGE ( 'NONE', *, *, #254, .T. ) ;
#18 = DIRECTION ( 'NONE',  ( 0.0000000000000000000, 1.000000000000000000, 0.0000000000000000000 ) ) ;
#19 = DIRECTION ( 'NONE',  ( 0.0000000000000000000, -1.000000000000000000, 0.0000000000000000000 ) ) ;
#20 = AXIS2_PLACEMENT_3D ( 'NONE', #257, #193, #133 ) ;
#21 = DIRECTION ( 'NONE',  ( 0.0000000000000000000, -1.000000000000000000, 0.0000000000000000000 ) ) ;
#22 = DIRECTION ( 'NONE',  ( -3.491481338843133355E-15, 1.224646799147353207E-16, -1.000000000000000000 ) ) ;
#23 = CARTESIAN_POINT ( 'NONE',  ( 8.379555213223520053E-14, 2.999519565323705910E-32, 24.00000000000000000 ) ) ;
#24 = CC_DESIGN_APPROVAL ( #169, ( #5 ) ) ;
#25 = COORDINATED_UNIVERSAL_TIME_OFFSET ( 1, 0, .AHEAD. ) ;
#26 = PERSON_AND_ORGANIZATION_ROLE ( 'design_supplier' ) ;
#27 = CC_DESIGN_PERSON_AND_ORGANIZATION_ASSIGNMENT ( #147, #97, ( #124 ) ) ;
#28 = APPROVAL_STATUS ( 'not_yet_approved' ) ;
#29 = DIRECTION ( 'NONE',  ( 1.000000000000000000, 0.0000000000000000000, 0.0000000000000000000 ) ) ;
#30 = CALENDAR_DATE ( 2021, 13, 10 ) ;
#31 = EDGE_LOOP ( 'NONE', ( #151 ) ) ;
#32 =( GEOMETRIC_REPRESENTATION_CONTEXT ( 3 ) GLOBAL_UNCERTAINTY_ASSIGNED_CONTEXT ( ( #142 ) ) GLOBAL_UNIT_ASSIGNED_CONTEXT ( ( #253, #123, #190 ) ) REPRESENTATION_CONTEXT ( 'NONE', 'WORKASPACE' ) );
#33 = FACE_OUTER_BOUND ( 'NONE', #177, .T. ) ;
#34 = DIRECTION ( 'NONE',  ( -4.275831445896958607E-31, -1.000000000000000000, -1.224646799147353207E-16 ) ) ;
#35 = EDGE_CURVE ( 'NONE', #117, #117, #148, .T. ) ;
#36 = ORIENTED_EDGE ( 'NONE', *, *, #165, .T. ) ;
#37 = ORIENTED_EDGE ( 'NONE', *, *, #35, .T. ) ;
#38 = AXIS2_PLACEMENT_3D ( 'NONE', #140, #164, #186 ) ;
#39 = EDGE_CURVE ( 'NONE', #161, #161, #4, .T. ) ;
#40 = DIRECTION ( 'NONE',  ( -3.491481338843133355E-15, 4.327174794786742882E-16, -1.000000000000000000 ) ) ;
#41 = DIRECTION ( 'NONE',  ( 0.0000000000000000000, 1.000000000000000000, 0.0000000000000000000 ) ) ;
#42 = CARTESIAN_POINT ( 'NONE',  ( 1.238791012765862477E-13, -4.000000000000011546, 35.48038475772931122 ) ) ;
#43 = AXIS2_PLACEMENT_3D ( 'NONE', #98, #68, #239 ) ;
#44 = DIRECTION ( 'NONE',  ( -3.491481338843133355E-15, 1.224646799147353207E-16, -1.000000000000000000 ) ) ;
#45 = FACE_OUTER_BOUND ( 'NONE', #52, .T. ) ;
#46 = DIRECTION ( 'NONE',  ( 0.0000000000000000000, 0.0000000000000000000, 1.000000000000000000 ) ) ;
#47 = ADVANCED_FACE ( 'NONE', ( #132 ), #54, .T. ) ;
#48 = PERSON_AND_ORGANIZATION_ROLE ( 'creator' ) ;
#49 = AXIS2_PLACEMENT_3D ( 'NONE', #200, #143, #103 ) ;
#50 = AXIS2_PLACEMENT_3D ( 'NONE', #121, #205, #41 ) ;
#51 = DIRECTION ( 'NONE',  ( 3.491481338843133355E-15, -1.224646799147353207E-16, 1.000000000000000000 ) ) ;
#52 = EDGE_LOOP ( 'NONE', ( #36 ) ) ;
#53 = EDGE_LOOP ( 'NONE', ( #196 ) ) ;
#54 = PLANE ( 'NONE',  #210 ) ;
#55 = FACE_OUTER_BOUND ( 'NONE', #53, .T. ) ;
#56 = CARTESIAN_POINT ( 'NONE',  ( 2.758270257686075477E-13, 2.399615652258957393E-32, 79.00000000000000000 ) ) ;
#57 = CARTESIAN_POINT ( 'NONE',  ( 4.193624426754929637E-15, -3.300000000000005151, 1.201101773078484980 ) ) ;
#58 = CARTESIAN_POINT ( 'NONE',  ( 1.269028128128638025E-13, -1.572772699318831726E-14, 36.34641016151378068 ) ) ;
#59 = DIRECTION ( 'NONE',  ( -3.851859888774481340E-31, -1.000000000000000000, -1.084202172485507146E-16 ) ) ;
#60 = CARTESIAN_POINT ( 'NONE',  ( 1.187103655206665341E-13, 3.299999999999995381, 34.00000000000000000 ) ) ;
#61 = MANIFOLD_SOLID_BREP ( 'Corps-Déplacer/Copier1[2]', #154 ) ;
#62 = CLOSED_SHELL ( 'NONE', ( #215, #118, #258, #191, #233, #127, #179 ) ) ;
#63 = AXIS2_PLACEMENT_3D ( 'NONE', #120, #6, #83 ) ;
#64 = VERTEX_POINT ( 'NONE', #85 ) ;
#65 = MANIFOLD_SOLID_BREP ( 'Corps-Déplacer/Copier1[1]', #62 ) ;
#66 = SECURITY_CLASSIFICATION_LEVEL ( 'unclassified' ) ;
#67 = AXIS2_PLACEMENT_3D ( 'NONE', #78, #137, #59 ) ;
#68 = DIRECTION ( 'NONE',  ( -3.491481338843133355E-15, 1.224646799147353207E-16, -1.000000000000000000 ) ) ;
#69 = CC_DESIGN_PERSON_AND_ORGANIZATION_ASSIGNMENT ( #145, #48, ( #130 ) ) ;
#70 = CARTESIAN_POINT ( 'NONE',  ( 2.758270257686075477E-13, -9.674709713264090904E-15, 79.00000000000000000 ) ) ;
#71 = AXIS2_PLACEMENT_3D ( 'NONE', #160, #201, #245 ) ;
#72 = ORIENTED_EDGE ( 'NONE', *, *, #165, .F. ) ;
#73 = CARTESIAN_POINT ( 'NONE',  ( 0.0000000000000000000, 0.0000000000000000000, 0.0000000000000000000 ) ) ;
#74 = EDGE_LOOP ( 'NONE', ( #112 ) ) ;
#75 = DIRECTION ( 'NONE',  ( -3.491481338843133355E-15, 1.224646799147353207E-16, -1.000000000000000000 ) ) ;
#76 = APPROVAL_PERSON_ORGANIZATION ( #107, #227, #192 ) ;
#77 = CARTESIAN_POINT ( 'NONE',  ( 8.379555213223520053E-14, -3.300000000000015810, 24.00000000000000000 ) ) ;
#78 = CARTESIAN_POINT ( 'NONE',  ( 5.083181123339289718E-15, -1.782939929516086737E-16, 1.455880937064824687 ) ) ;
#79 = PRODUCT ( '43539', '43539', '', ( #170 ) ) ;
#80 = DIRECTION ( 'NONE',  ( 3.491481338843133355E-15, -1.224646799147353207E-16, 1.000000000000000000 ) ) ;
#81 = AXIS2_PLACEMENT_3D ( 'NONE', #73, #158, #135 ) ;
#82 = ORGANIZATION ( 'UNSPECIFIED', 'UNSPECIFIED', '' ) ;
#83 = DIRECTION ( 'NONE',  ( 0.0000000000000000000, 1.000000000000000000, 0.0000000000000000000 ) ) ;
#84 = DATE_AND_TIME ( #172, #229 ) ;
#85 = CARTESIAN_POINT ( 'NONE',  ( 2.758270257686075477E-13, 3.199999999999989964, 79.00000000000000000 ) ) ;
#86 = DATE_AND_TIME ( #88, #235 ) ;
#87 = ADVANCED_FACE ( 'NONE', ( #220, #111 ), #195, .T. ) ;
#88 = CALENDAR_DATE ( 2021, 13, 10 ) ;
#89 = PERSON_AND_ORGANIZATION ( #14, #82 ) ;
#90 = ORIENTED_EDGE ( 'NONE', *, *, #39, .F. ) ;
#91 = ADVANCED_BREP_SHAPE_REPRESENTATION ( '43539', ( #65, #61, #198 ), #32 ) ;
#92 = FACE_BOUND ( 'NONE', #157, .T. ) ;
#93 = EDGE_LOOP ( 'NONE', ( #96 ) ) ;
#94 = CONICAL_SURFACE ( 'NONE', #228, 3.199999999999999289, 0.7853981633974599363 ) ;
#95 = AXIS2_PLACEMENT_3D ( 'NONE', #116, #249, #100 ) ;
#96 = ORIENTED_EDGE ( 'NONE', *, *, #254, .F. ) ;
#97 = PERSON_AND_ORGANIZATION_ROLE ( 'classification_officer' ) ;
#98 = CARTESIAN_POINT ( 'NONE',  ( 4.193624426754931214E-15, -1.470925441850777684E-16, 1.201101773078485424 ) ) ;
#99 = CARTESIAN_POINT ( 'NONE',  ( 1.187103655206665341E-13, -1.471239430227492580E-14, 34.00000000000000000 ) ) ;
#100 = DIRECTION ( 'NONE',  ( 4.275831445896957731E-31, 1.000000000000000000, 1.224646799147353454E-16 ) ) ;
#101 = CARTESIAN_POINT ( 'NONE',  ( 8.379555213223520053E-14, -3.300000000000015810, 24.00000000000000000 ) ) ;
#102 = DIRECTION ( 'NONE',  ( 4.275831445896958607E-31, 1.000000000000000000, 1.224646799147353207E-16 ) ) ;
#103 = DIRECTION ( 'NONE',  ( 0.0000000000000000000, -1.000000000000000000, 0.0000000000000000000 ) ) ;
#104 = AXIS2_PLACEMENT_3D ( 'NONE', #99, #40, #18 ) ;
#105 = DATE_TIME_ROLE ( 'creation_date' ) ;
#106 = APPLICATION_PROTOCOL_DEFINITION ( 'international standard', 'config_control_design', 1994, #199 ) ;
#107 = PERSON_AND_ORGANIZATION ( #14, #82 ) ;
#108 = VERTEX_POINT ( 'NONE', #8 ) ;
#109 = EDGE_LOOP ( 'NONE', ( #110 ) ) ;
#110 = ORIENTED_EDGE ( 'NONE', *, *, #183, .T. ) ;
#111 = FACE_OUTER_BOUND ( 'NONE', #241, .T. ) ;
#112 = ORIENTED_EDGE ( 'NONE', *, *, #183, .F. ) ;
#113 = CC_DESIGN_DATE_AND_TIME_ASSIGNMENT ( #84, #105, ( #130 ) ) ;
#114 = CIRCLE ( 'NONE', #16, 3.999999999999999112 ) ;
#115 = ORIENTED_EDGE ( 'NONE', *, *, #211, .F. ) ;
#116 = CARTESIAN_POINT ( 'NONE',  ( 0.0000000000000000000, 0.0000000000000000000, 0.0000000000000000000 ) ) ;
#117 = VERTEX_POINT ( 'NONE', #77 ) ;
#118 = ADVANCED_FACE ( 'NONE', ( #33, #92 ), #94, .T. ) ;
#119 = CARTESIAN_POINT ( 'NONE',  ( 2.730338406975331420E-13, -9.576737969332304047E-15, 78.20000000000001705 ) ) ;
#120 = CARTESIAN_POINT ( 'NONE',  ( 1.204561061900881197E-13, -1.492875304201426452E-14, 34.50000000000000000 ) ) ;
#121 = CARTESIAN_POINT ( 'NONE',  ( 2.758270257686075477E-13, -9.674709713264090904E-15, 79.00000000000000000 ) ) ;
#122 = CC_DESIGN_DATE_AND_TIME_ASSIGNMENT ( #236, #221, ( #124 ) ) ;
#123 =( NAMED_UNIT ( * ) PLANE_ANGLE_UNIT ( ) SI_UNIT ( $, .RADIAN. ) );
#124 = SECURITY_CLASSIFICATION ( '', '', #66 ) ;
#125 = PERSON_AND_ORGANIZATION ( #14, #82 ) ;
#126 = COORDINATED_UNIVERSAL_TIME_OFFSET ( 1, 0, .AHEAD. ) ;
#127 = ADVANCED_FACE ( 'NONE', ( #55, #214 ), #15, .F. ) ;
#128 = LOCAL_TIME ( 13, 36, 12.00000000000000000, #168 ) ;
#129 = APPROVAL_DATE_TIME ( #86, #227 ) ;
#130 = PRODUCT_DEFINITION ( 'UNKNOWN', '', #5, #184 ) ;
#131 = APPROVAL_ROLE ( '' ) ;
#132 = FACE_OUTER_BOUND ( 'NONE', #13, .T. ) ;
#133 = DIRECTION ( 'NONE',  ( 0.0000000000000000000, -1.000000000000000000, 0.0000000000000000000 ) ) ;
#134 = ADVANCED_FACE ( 'NONE', ( #187 ), #197, .T. ) ;
#135 = DIRECTION ( 'NONE',  ( 1.510825004591027855E-30, 1.000000000000000000, 4.327174794786742882E-16 ) ) ;
#136 = APPROVAL_PERSON_ORGANIZATION ( #212, #169, #174 ) ;
#137 = DIRECTION ( 'NONE',  ( 3.491481338843133355E-15, -1.224646799147353207E-16, 1.000000000000000000 ) ) ;
#138 = PRODUCT_DEFINITION_SHAPE ( 'NONE', 'NONE',  #130 ) ;
#139 = PRODUCT_RELATED_PRODUCT_CATEGORY ( 'detail', '', ( #79 ) ) ;
#140 = CARTESIAN_POINT ( 'NONE',  ( 0.0000000000000000000, 0.0000000000000000000, 0.0000000000000000000 ) ) ;
#141 = VERTEX_POINT ( 'NONE', #42 ) ;
#142 = UNCERTAINTY_MEASURE_WITH_UNIT (LENGTH_MEASURE( 1.000000000000000082E-05 ), #253, 'distance_accuracy_value', 'NONE');
#143 = DIRECTION ( 'NONE',  ( 3.491481338843133355E-15, -4.327174794786742882E-16, 1.000000000000000000 ) ) ;
#144 = CC_DESIGN_PERSON_AND_ORGANIZATION_ASSIGNMENT ( #207, #26, ( #5 ) ) ;
#145 = PERSON_AND_ORGANIZATION ( #14, #82 ) ;
#146 = CC_DESIGN_PERSON_AND_ORGANIZATION_ASSIGNMENT ( #125, #252, ( #5 ) ) ;
#147 = PERSON_AND_ORGANIZATION ( #14, #82 ) ;
#148 = CIRCLE ( 'NONE', #20, 3.300000000000005151 ) ;
#149 = CIRCLE ( 'NONE', #63, 3.433974596215572994 ) ;
#150 = PERSON_AND_ORGANIZATION ( #14, #82 ) ;
#151 = ORIENTED_EDGE ( 'NONE', *, *, #262, .T. ) ;
#152 = COORDINATED_UNIVERSAL_TIME_OFFSET ( 1, 0, .AHEAD. ) ;
#153 = DIRECTION ( 'NONE',  ( 0.0000000000000000000, 1.000000000000000000, 0.0000000000000000000 ) ) ;
#154 = CLOSED_SHELL ( 'NONE', ( #134, #87, #47 ) ) ;
#155 = CIRCLE ( 'NONE', #104, 3.300000000000010036 ) ;
#156 = CC_DESIGN_PERSON_AND_ORGANIZATION_ASSIGNMENT ( #89, #234, ( #79 ) ) ;
#157 = EDGE_LOOP ( 'NONE', ( #256 ) ) ;
#158 = DIRECTION ( 'NONE',  ( -3.491481338843133355E-15, 4.327174794786742882E-16, -1.000000000000000000 ) ) ;
#159 = APPROVAL ( #213, 'UNSPECIFIED' ) ;
#160 = CARTESIAN_POINT ( 'NONE',  ( 1.187103655206665341E-13, -1.474514954580286030E-14, 34.00000000000000000 ) ) ;
#161 = VERTEX_POINT ( 'NONE', #57 ) ;
#162 = APPLICATION_CONTEXT ( 'configuration controlled 3d designs of mechanical parts and assemblies' ) ;
#163 = FACE_OUTER_BOUND ( 'NONE', #74, .T. ) ;
#164 = DIRECTION ( 'NONE',  ( -3.491481338843133355E-15, 4.327174794786742882E-16, -1.000000000000000000 ) ) ;
#165 = EDGE_CURVE ( 'NONE', #141, #141, #243, .T. ) ;
#166 = CONICAL_SURFACE ( 'NONE', #202, 4.500000000000010658, 0.5235987755982989267 ) ;
#167 = FACE_OUTER_BOUND ( 'NONE', #260, .T. ) ;
#168 = COORDINATED_UNIVERSAL_TIME_OFFSET ( 1, 0, .AHEAD. ) ;
#169 = APPROVAL ( #28, 'UNSPECIFIED' ) ;
#170 = MECHANICAL_CONTEXT ( 'NONE', #199, 'mechanical' ) ;
#171 = CC_DESIGN_SECURITY_CLASSIFICATION ( #124, ( #5 ) ) ;
#172 = CALENDAR_DATE ( 2021, 13, 10 ) ;
#173 = DATE_AND_TIME ( #208, #128 ) ;
#174 = APPROVAL_ROLE ( '' ) ;
#175 = LOCAL_TIME ( 13, 36, 12.00000000000000000, #238 ) ;
#176 = SHAPE_DEFINITION_REPRESENTATION ( #138, #91 ) ;
#177 = EDGE_LOOP ( 'NONE', ( #115 ) ) ;
#178 = EDGE_LOOP ( 'NONE', ( #72 ) ) ;
#179 = ADVANCED_FACE ( 'NONE', ( #2 ), #224, .F. ) ;
#180 = CIRCLE ( 'NONE', #50, 3.199999999999999289 ) ;
#181 = EDGE_LOOP ( 'NONE', ( #219 ) ) ;
#182 = EDGE_LOOP ( 'NONE', ( #216 ) ) ;
#183 = EDGE_CURVE ( 'NONE', #203, #203, #194, .T. ) ;
#184 = DESIGN_CONTEXT ( 'detailed design', #162, 'design' ) ;
#185 = CARTESIAN_POINT ( 'NONE',  ( 8.379555213223520053E-14, -1.038521950748818292E-14, 24.00000000000000000 ) ) ;
#186 = DIRECTION ( 'NONE',  ( 1.510825004591027855E-30, 1.000000000000000000, 4.327174794786742882E-16 ) ) ;
#187 = FACE_OUTER_BOUND ( 'NONE', #181, .T. ) ;
#188 = CARTESIAN_POINT ( 'NONE',  ( 0.0000000000000000000, 0.0000000000000000000, 0.0000000000000000000 ) ) ;
#189 = AXIS2_PLACEMENT_3D ( 'NONE', #56, #22, #102 ) ;
#190 =( NAMED_UNIT ( * ) SI_UNIT ( $, .STERADIAN. ) SOLID_ANGLE_UNIT ( ) );
#191 = ADVANCED_FACE ( 'NONE', ( #3, #163 ), #230, .T. ) ;
#192 = APPROVAL_ROLE ( '' ) ;
#193 = DIRECTION ( 'NONE',  ( -3.491481338843133355E-15, 1.224646799147353207E-16, -1.000000000000000000 ) ) ;
#194 = CIRCLE ( 'NONE', #223, 3.300000000000005151 ) ;
#195 = CYLINDRICAL_SURFACE ( 'NONE', #81, 3.300000000000005151 ) ;
#196 = ORIENTED_EDGE ( 'NONE', *, *, #262, .F. ) ;
#197 = CONICAL_SURFACE ( 'NONE', #67, 3.999999999999989786, 1.221730476396026610 ) ;
#198 = AXIS2_PLACEMENT_3D ( 'NONE', #188, #46, #29 ) ;
#199 = APPLICATION_CONTEXT ( 'configuration controlled 3d designs of mechanical parts and assemblies' ) ;
#200 = CARTESIAN_POINT ( 'NONE',  ( 1.238791012765862477E-13, -1.535298266329820374E-14, 35.48038475772931122 ) ) ;
#201 = DIRECTION ( 'NONE',  ( -3.491481338843133355E-15, 4.327174794786742882E-16, -1.000000000000000000 ) ) ;
#202 = AXIS2_PLACEMENT_3D ( 'NONE', #58, #244, #19 ) ;
#203 = VERTEX_POINT ( 'NONE', #101 ) ;
#204 = PLANE ( 'NONE',  #189 ) ;
#205 = DIRECTION ( 'NONE',  ( -3.491481338843133355E-15, 1.224646799147353207E-16, -1.000000000000000000 ) ) ;
#206 = APPROVAL_STATUS ( 'not_yet_approved' ) ;
#207 = PERSON_AND_ORGANIZATION ( #14, #82 ) ;
#208 = CALENDAR_DATE ( 2021, 13, 10 ) ;
#209 = VERTEX_POINT ( 'NONE', #232 ) ;
#210 = AXIS2_PLACEMENT_3D ( 'NONE', #255, #51, #34 ) ;
#211 = EDGE_CURVE ( 'NONE', #108, #108, #114, .T. ) ;
#212 = PERSON_AND_ORGANIZATION ( #14, #82 ) ;
#213 = APPROVAL_STATUS ( 'not_yet_approved' ) ;
#214 = FACE_OUTER_BOUND ( 'NONE', #259, .T. ) ;
#215 = ADVANCED_FACE ( 'NONE', ( #45, #1 ), #246, .T. ) ;
#216 = ORIENTED_EDGE ( 'NONE', *, *, #211, .T. ) ;
#217 = APPROVAL_PERSON_ORGANIZATION ( #150, #159, #131 ) ;
#218 = CALENDAR_DATE ( 2021, 13, 10 ) ;
#219 = ORIENTED_EDGE ( 'NONE', *, *, #39, .T. ) ;
#220 = FACE_OUTER_BOUND ( 'NONE', #11, .T. ) ;
#221 = DATE_TIME_ROLE ( 'classification_date' ) ;
#222 = AXIS2_PLACEMENT_3D ( 'NONE', #23, #80, #226 ) ;
#223 = AXIS2_PLACEMENT_3D ( 'NONE', #185, #44, #21 ) ;
#224 = PLANE ( 'NONE',  #222 ) ;
#225 = FACE_BOUND ( 'NONE', #93, .T. ) ;
#226 = DIRECTION ( 'NONE',  ( -4.275831445896958607E-31, -1.000000000000000000, -1.224646799147353207E-16 ) ) ;
#227 = APPROVAL ( #206, 'UNSPECIFIED' ) ;
#228 = AXIS2_PLACEMENT_3D ( 'NONE', #70, #242, #153 ) ;
#229 = LOCAL_TIME ( 13, 36, 12.00000000000000000, #25 ) ;
#230 = CYLINDRICAL_SURFACE ( 'NONE', #38, 3.300000000000005151 ) ;
#231 = CC_DESIGN_APPROVAL ( #159, ( #124 ) ) ;
#232 = CARTESIAN_POINT ( 'NONE',  ( 1.204561061900881197E-13, 3.433974596215557895, 34.50000000000000000 ) ) ;
#233 = ADVANCED_FACE ( 'NONE', ( #225, #248 ), #166, .T. ) ;
#234 = PERSON_AND_ORGANIZATION_ROLE ( 'design_owner' ) ;
#235 = LOCAL_TIME ( 13, 36, 12.00000000000000000, #126 ) ;
#236 = DATE_AND_TIME ( #218, #175 ) ;
#237 = EDGE_CURVE ( 'NONE', #64, #64, #180, .T. ) ;
#238 = COORDINATED_UNIVERSAL_TIME_OFFSET ( 1, 0, .AHEAD. ) ;
#239 = DIRECTION ( 'NONE',  ( -4.668921077302382516E-31, -1.000000000000000000, -1.314184451497579040E-16 ) ) ;
#240 = ORIENTED_EDGE ( 'NONE', *, *, #237, .F. ) ;
#241 = EDGE_LOOP ( 'NONE', ( #90 ) ) ;
#242 = DIRECTION ( 'NONE',  ( -3.491481338843133355E-15, 1.224646799147353207E-16, -1.000000000000000000 ) ) ;
#243 = CIRCLE ( 'NONE', #49, 3.999999999999995559 ) ;
#244 = DIRECTION ( 'NONE',  ( 3.491481338843133355E-15, -4.327174794786742882E-16, 1.000000000000000000 ) ) ;
#245 = DIRECTION ( 'NONE',  ( 1.510825004591027855E-30, 1.000000000000000000, 4.327174794786742882E-16 ) ) ;
#246 = CYLINDRICAL_SURFACE ( 'NONE', #95, 3.999999999999995559 ) ;
#247 = CC_DESIGN_APPROVAL ( #227, ( #130 ) ) ;
#248 = FACE_OUTER_BOUND ( 'NONE', #178, .T. ) ;
#249 = DIRECTION ( 'NONE',  ( -3.491481338843133355E-15, 1.224646799147353207E-16, -1.000000000000000000 ) ) ;
#250 = APPROVAL_DATE_TIME ( #173, #169 ) ;
#251 = APPLICATION_PROTOCOL_DEFINITION ( 'international standard', 'config_control_design', 1994, #162 ) ;
#252 = PERSON_AND_ORGANIZATION_ROLE ( 'creator' ) ;
#253 =( LENGTH_UNIT ( ) NAMED_UNIT ( * ) SI_UNIT ( .MILLI., .METRE. ) );
#254 = EDGE_CURVE ( 'NONE', #209, #209, #149, .T. ) ;
#255 = CARTESIAN_POINT ( 'NONE',  ( 8.379555213223520053E-14, 2.999519565323705910E-32, 24.00000000000000000 ) ) ;
#256 = ORIENTED_EDGE ( 'NONE', *, *, #237, .T. ) ;
#257 = CARTESIAN_POINT ( 'NONE',  ( 8.379555213223520053E-14, -1.038521950748818292E-14, 24.00000000000000000 ) ) ;
#258 = ADVANCED_FACE ( 'NONE', ( #167 ), #204, .F. ) ;
#259 = EDGE_LOOP ( 'NONE', ( #17 ) ) ;
#260 = EDGE_LOOP ( 'NONE', ( #240 ) ) ;
#261 = DIRECTION ( 'NONE',  ( 0.0000000000000000000, 1.000000000000000000, 0.0000000000000000000 ) ) ;
#262 = EDGE_CURVE ( 'NONE', #7, #7, #155, .T. ) ;
#263 = LOCAL_TIME ( 13, 36, 12.00000000000000000, #152 ) ;
ENDSEC;
END-ISO-10303-21;
