ISO-10303-21;
HEADER;
FILE_DESCRIPTION (( 'STEP AP203' ),
    '1' );
FILE_NAME ('43538.step',
    '2021-10-13T11:36:11',
    ( '' ),
    ( '' ),
    'SwSTEP 2.0',
    'SolidWorks 2019',
    '' );
FILE_SCHEMA (( 'CONFIG_CONTROL_DESIGN' ));
ENDSEC;

DATA;
#1 = EDGE_LOOP ( 'NONE', ( #171 ) ) ;
#2 = EDGE_LOOP ( 'NONE', ( #28 ) ) ;
#3 = CYLINDRICAL_SURFACE ( 'NONE', #129, 3.999999999999995559 ) ;
#4 = CIRCLE ( 'NONE', #233, 3.150000000000005240 ) ;
#5 = EDGE_LOOP ( 'NONE', ( #45 ) ) ;
#6 = FACE_OUTER_BOUND ( 'NONE', #206, .T. ) ;
#7 = CARTESIAN_POINT ( 'NONE',  ( 8.379555213223520053E-14, -1.038521950748818292E-14, 24.00000000000000000 ) ) ;
#8 = APPROVAL_PERSON_ORGANIZATION ( #165, #42, #20 ) ;
#9 = VERTEX_POINT ( 'NONE', #34 ) ;
#10 = VERTEX_POINT ( 'NONE', #121 ) ;
#11 = PRODUCT_RELATED_PRODUCT_CATEGORY ( 'detail', '', ( #58 ) ) ;
#12 = VERTEX_POINT ( 'NONE', #200 ) ;
#13 = PRODUCT_DEFINITION_SHAPE ( 'NONE', 'NONE',  #68 ) ;
#14 = AXIS2_PLACEMENT_3D ( 'NONE', #248, #244, #227 ) ;
#15 = AXIS2_PLACEMENT_3D ( 'NONE', #157, #78, #75 ) ;
#16 = APPROVAL_PERSON_ORGANIZATION ( #163, #250, #241 ) ;
#17 = DIRECTION ( 'NONE',  ( 0.0000000000000000000, 0.0000000000000000000, 1.000000000000000000 ) ) ;
#18 = CALENDAR_DATE ( 2021, 13, 10 ) ;
#19 = CC_DESIGN_PERSON_AND_ORGANIZATION_ASSIGNMENT ( #186, #125, ( #33 ) ) ;
#20 = APPROVAL_ROLE ( '' ) ;
#21 = PERSON ( 'UNSPECIFIED', 'UNSPECIFIED', 'UNSPECIFIED', ('UNSPECIFIED'), ('UNSPECIFIED'), ('UNSPECIFIED') ) ;
#22 = APPROVAL_DATE_TIME ( #39, #172 ) ;
#23 = APPLICATION_PROTOCOL_DEFINITION ( 'international standard', 'config_control_design', 1994, #49 ) ;
#24 = ORIENTED_EDGE ( 'NONE', *, *, #239, .F. ) ;
#25 = FACE_BOUND ( 'NONE', #113, .T. ) ;
#26 = EDGE_CURVE ( 'NONE', #119, #119, #202, .T. ) ;
#27 = EDGE_LOOP ( 'NONE', ( #228 ) ) ;
#28 = ORIENTED_EDGE ( 'NONE', *, *, #63, .F. ) ;
#29 = DIRECTION ( 'NONE',  ( 0.0000000000000000000, -1.000000000000000000, 0.0000000000000000000 ) ) ;
#30 = DIRECTION ( 'NONE',  ( 0.0000000000000000000, -1.000000000000000000, 0.0000000000000000000 ) ) ;
#31 = CARTESIAN_POINT ( 'NONE',  ( 0.0000000000000000000, 0.0000000000000000000, 0.0000000000000000000 ) ) ;
#32 = AXIS2_PLACEMENT_3D ( 'NONE', #133, #56, #180 ) ;
#33 = PRODUCT_DEFINITION_FORMATION_WITH_SPECIFIED_SOURCE ( 'ANY', '', #58, .NOT_KNOWN. ) ;
#34 = CARTESIAN_POINT ( 'NONE',  ( 2.730338406975331420E-13, 3.999999999999989786, 78.20000000000001705 ) ) ;
#35 = CARTESIAN_POINT ( 'NONE',  ( 5.083181123339289718E-15, -1.782939929516086737E-16, 1.455880937064824687 ) ) ;
#36 = PERSON_AND_ORGANIZATION_ROLE ( 'classification_officer' ) ;
#37 = EDGE_CURVE ( 'NONE', #9, #9, #257, .T. ) ;
#38 = AXIS2_PLACEMENT_3D ( 'NONE', #161, #77, #232 ) ;
#39 = DATE_AND_TIME ( #41, #238 ) ;
#40 = PERSON_AND_ORGANIZATION ( #21, #116 ) ;
#41 = CALENDAR_DATE ( 2021, 13, 10 ) ;
#42 = APPROVAL ( #237, 'UNSPECIFIED' ) ;
#43 = FACE_OUTER_BOUND ( 'NONE', #225, .T. ) ;
#44 = LOCAL_TIME ( 13, 36, 11.00000000000000000, #104 ) ;
#45 = ORIENTED_EDGE ( 'NONE', *, *, #239, .T. ) ;
#46 = EDGE_LOOP ( 'NONE', ( #193 ) ) ;
#47 = CARTESIAN_POINT ( 'NONE',  ( 1.187103655206665341E-13, -1.474514954580286030E-14, 34.00000000000000000 ) ) ;
#48 = CONICAL_SURFACE ( 'NONE', #192, 3.999999999999989786, 1.221730476396026610 ) ;
#49 = APPLICATION_CONTEXT ( 'configuration controlled 3d designs of mechanical parts and assemblies' ) ;
#50 = DIRECTION ( 'NONE',  ( -3.491481338843133355E-15, 4.327174794786742882E-16, -1.000000000000000000 ) ) ;
#51 = FACE_OUTER_BOUND ( 'NONE', #95, .T. ) ;
#52 = CYLINDRICAL_SURFACE ( 'NONE', #93, 3.150000000000005240 ) ;
#53 = CLOSED_SHELL ( 'NONE', ( #74, #138, #181, #224, #117, #87, #115 ) ) ;
#54 = AXIS2_PLACEMENT_3D ( 'NONE', #253, #76, #195 ) ;
#55 = FACE_OUTER_BOUND ( 'NONE', #2, .T. ) ;
#56 = DIRECTION ( 'NONE',  ( -3.491481338843133355E-15, 1.224646799147353207E-16, -1.000000000000000000 ) ) ;
#57 = CALENDAR_DATE ( 2021, 13, 10 ) ;
#58 = PRODUCT ( '43538', '43538', '', ( #60 ) ) ;
#59 = CIRCLE ( 'NONE', #14, 3.150000000000005240 ) ;
#60 = MECHANICAL_CONTEXT ( 'NONE', #49, 'mechanical' ) ;
#61 = ORIENTED_EDGE ( 'NONE', *, *, #160, .F. ) ;
#62 = PERSON_AND_ORGANIZATION_ROLE ( 'design_owner' ) ;
#63 = EDGE_CURVE ( 'NONE', #199, #199, #59, .T. ) ;
#64 = MANIFOLD_SOLID_BREP ( 'Corps-Déplacer/Copier1[2]', #223 ) ;
#65 = PERSON_AND_ORGANIZATION ( #21, #116 ) ;
#66 = DIRECTION ( 'NONE',  ( 0.0000000000000000000, -1.000000000000000000, 0.0000000000000000000 ) ) ;
#67 = MANIFOLD_SOLID_BREP ( 'Corps-Déplacer/Copier1[1]', #53 ) ;
#68 = PRODUCT_DEFINITION ( 'UNKNOWN', '', #33, #150 ) ;
#69 = DATE_AND_TIME ( #185, #44 ) ;
#70 = DIRECTION ( 'NONE',  ( -4.275831445896958607E-31, -1.000000000000000000, -1.224646799147353207E-16 ) ) ;
#71 = SECURITY_CLASSIFICATION ( '', '', #84 ) ;
#72 = EDGE_LOOP ( 'NONE', ( #112 ) ) ;
#73 = CARTESIAN_POINT ( 'NONE',  ( 0.0000000000000000000, 0.0000000000000000000, 0.0000000000000000000 ) ) ;
#74 = ADVANCED_FACE ( 'NONE', ( #212, #43 ), #3, .T. ) ;
#75 = DIRECTION ( 'NONE',  ( 1.510825004591027855E-30, 1.000000000000000000, 4.327174794786742882E-16 ) ) ;
#76 = DIRECTION ( 'NONE',  ( -3.491481338843133355E-15, 1.224646799147353207E-16, -1.000000000000000000 ) ) ;
#77 = DIRECTION ( 'NONE',  ( -3.491481338843133355E-15, 4.327174794786742882E-16, -1.000000000000000000 ) ) ;
#78 = DIRECTION ( 'NONE',  ( -3.491481338843133355E-15, 4.327174794786742882E-16, -1.000000000000000000 ) ) ;
#79 = VERTEX_POINT ( 'NONE', #235 ) ;
#80 =( NAMED_UNIT ( * ) SI_UNIT ( $, .STERADIAN. ) SOLID_ANGLE_UNIT ( ) );
#81 = PERSON_AND_ORGANIZATION ( #21, #116 ) ;
#82 = AXIS2_PLACEMENT_3D ( 'NONE', #210, #154, #88 ) ;
#83 = COORDINATED_UNIVERSAL_TIME_OFFSET ( 1, 0, .AHEAD. ) ;
#84 = SECURITY_CLASSIFICATION_LEVEL ( 'unclassified' ) ;
#85 = APPROVAL_PERSON_ORGANIZATION ( #102, #172, #236 ) ;
#86 = CARTESIAN_POINT ( 'NONE',  ( 8.379555213223520053E-14, 2.999519565323705910E-32, 24.00000000000000000 ) ) ;
#87 = ADVANCED_FACE ( 'NONE', ( #155, #92 ), #220, .F. ) ;
#88 = DIRECTION ( 'NONE',  ( 0.0000000000000000000, 1.000000000000000000, 0.0000000000000000000 ) ) ;
#89 = APPLICATION_CONTEXT ( 'configuration controlled 3d designs of mechanical parts and assemblies' ) ;
#90 = EDGE_LOOP ( 'NONE', ( #173 ) ) ;
#91 = AXIS2_PLACEMENT_3D ( 'NONE', #176, #136, #190 ) ;
#92 = FACE_OUTER_BOUND ( 'NONE', #126, .T. ) ;
#93 = AXIS2_PLACEMENT_3D ( 'NONE', #31, #50, #158 ) ;
#94 = CC_DESIGN_DATE_AND_TIME_ASSIGNMENT ( #259, #128, ( #68 ) ) ;
#95 = EDGE_LOOP ( 'NONE', ( #247 ) ) ;
#96 = CARTESIAN_POINT ( 'NONE',  ( 4.003005134629708323E-15, -1.404065194493924265E-16, 1.146506237938554440 ) ) ;
#97 = FACE_OUTER_BOUND ( 'NONE', #72, .T. ) ;
#98 = CC_DESIGN_PERSON_AND_ORGANIZATION_ASSIGNMENT ( #65, #36, ( #71 ) ) ;
#99 = CARTESIAN_POINT ( 'NONE',  ( 8.379555213223520053E-14, -3.150000000000015454, 24.00000000000000000 ) ) ;
#100 = PLANE ( 'NONE',  #211 ) ;
#101 = VERTEX_POINT ( 'NONE', #252 ) ;
#102 = PERSON_AND_ORGANIZATION ( #21, #116 ) ;
#103 = DATE_AND_TIME ( #57, #258 ) ;
#104 = COORDINATED_UNIVERSAL_TIME_OFFSET ( 1, 0, .AHEAD. ) ;
#105 = CC_DESIGN_DATE_AND_TIME_ASSIGNMENT ( #103, #184, ( #71 ) ) ;
#106 = CIRCLE ( 'NONE', #242, 3.999999999999995559 ) ;
#107 = EDGE_LOOP ( 'NONE', ( #61 ) ) ;
#108 = DATE_AND_TIME ( #18, #120 ) ;
#109 = DIRECTION ( 'NONE',  ( -3.491481338843133355E-15, 4.327174794786742882E-16, -1.000000000000000000 ) ) ;
#110 = AXIS2_PLACEMENT_3D ( 'NONE', #47, #109, #170 ) ;
#111 = CC_DESIGN_APPROVAL ( #172, ( #33 ) ) ;
#112 = ORIENTED_EDGE ( 'NONE', *, *, #214, .T. ) ;
#113 = EDGE_LOOP ( 'NONE', ( #175 ) ) ;
#114 = EDGE_LOOP ( 'NONE', ( #188 ) ) ;
#115 = ADVANCED_FACE ( 'NONE', ( #187 ), #245, .F. ) ;
#116 = ORGANIZATION ( 'UNSPECIFIED', 'UNSPECIFIED', '' ) ;
#117 = ADVANCED_FACE ( 'NONE', ( #152, #226 ), #178, .T. ) ;
#118 = CARTESIAN_POINT ( 'NONE',  ( 2.758270257686075477E-13, -9.674709713264090904E-15, 79.00000000000000000 ) ) ;
#119 = VERTEX_POINT ( 'NONE', #162 ) ;
#120 = LOCAL_TIME ( 13, 36, 11.00000000000000000, #167 ) ;
#121 = CARTESIAN_POINT ( 'NONE',  ( 4.003005134629706746E-15, -3.150000000000005240, 1.146506237938553996 ) ) ;
#122 =( LENGTH_UNIT ( ) NAMED_UNIT ( * ) SI_UNIT ( .MILLI., .METRE. ) );
#123 = AXIS2_PLACEMENT_3D ( 'NONE', #86, #243, #70 ) ;
#124 = CALENDAR_DATE ( 2021, 13, 10 ) ;
#125 = PERSON_AND_ORGANIZATION_ROLE ( 'creator' ) ;
#126 = EDGE_LOOP ( 'NONE', ( #189 ) ) ;
#127 = UNCERTAINTY_MEASURE_WITH_UNIT (LENGTH_MEASURE( 1.000000000000000082E-05 ), #122, 'distance_accuracy_value', 'NONE');
#128 = DATE_TIME_ROLE ( 'creation_date' ) ;
#129 = AXIS2_PLACEMENT_3D ( 'NONE', #73, #148, #263 ) ;
#130 = PERSON_AND_ORGANIZATION_ROLE ( 'creator' ) ;
#131 = ORIENTED_EDGE ( 'NONE', *, *, #160, .T. ) ;
#132 = FACE_OUTER_BOUND ( 'NONE', #27, .T. ) ;
#133 = CARTESIAN_POINT ( 'NONE',  ( 2.758270257686075477E-13, -9.674709713264090904E-15, 79.00000000000000000 ) ) ;
#134 = ORIENTED_EDGE ( 'NONE', *, *, #37, .T. ) ;
#135 = CIRCLE ( 'NONE', #246, 3.199999999999999289 ) ;
#136 = DIRECTION ( 'NONE',  ( -3.491481338843133355E-15, 4.327174794786742882E-16, -1.000000000000000000 ) ) ;
#137 = CIRCLE ( 'NONE', #38, 3.150000000000010569 ) ;
#138 = ADVANCED_FACE ( 'NONE', ( #132, #25 ), #149, .T. ) ;
#139 = CYLINDRICAL_SURFACE ( 'NONE', #15, 3.150000000000005240 ) ;
#140 = DIRECTION ( 'NONE',  ( 3.491481338843133355E-15, -4.327174794786742882E-16, 1.000000000000000000 ) ) ;
#141 = DIRECTION ( 'NONE',  ( 3.491481338843133355E-15, -1.224646799147353207E-16, 1.000000000000000000 ) ) ;
#142 = ADVANCED_FACE ( 'NONE', ( #6 ), #100, .T. ) ;
#143 = LOCAL_TIME ( 13, 36, 11.00000000000000000, #256 ) ;
#144 = CC_DESIGN_PERSON_AND_ORGANIZATION_ASSIGNMENT ( #203, #62, ( #58 ) ) ;
#145 = APPROVAL_DATE_TIME ( #108, #250 ) ;
#146 = EDGE_LOOP ( 'NONE', ( #209 ) ) ;
#147 = CARTESIAN_POINT ( 'NONE',  ( 1.278099262737469655E-13, -1.584015029215534310E-14, 36.60621778264909665 ) ) ;
#148 = DIRECTION ( 'NONE',  ( -3.491481338843133355E-15, 1.224646799147353207E-16, -1.000000000000000000 ) ) ;
#149 = CONICAL_SURFACE ( 'NONE', #32, 3.199999999999999289, 0.7853981633974599363 ) ;
#150 = DESIGN_CONTEXT ( 'detailed design', #89, 'design' ) ;
#151 = EDGE_CURVE ( 'NONE', #10, #10, #169, .T. ) ;
#152 = FACE_BOUND ( 'NONE', #90, .T. ) ;
#153 = SHAPE_DEFINITION_REPRESENTATION ( #13, #251 ) ;
#154 = DIRECTION ( 'NONE',  ( -3.491481338843133355E-15, 1.224646799147353207E-16, -1.000000000000000000 ) ) ;
#155 = FACE_OUTER_BOUND ( 'NONE', #146, .T. ) ;
#156 = CC_DESIGN_APPROVAL ( #250, ( #68 ) ) ;
#157 = CARTESIAN_POINT ( 'NONE',  ( 0.0000000000000000000, 0.0000000000000000000, 0.0000000000000000000 ) ) ;
#158 = DIRECTION ( 'NONE',  ( 1.510825004591027855E-30, 1.000000000000000000, 4.327174794786742882E-16 ) ) ;
#159 = CARTESIAN_POINT ( 'NONE',  ( 1.247862147374694611E-13, -1.546540596226522644E-14, 35.74019237886464140 ) ) ;
#160 = EDGE_CURVE ( 'NONE', #12, #12, #106, .T. ) ;
#161 = CARTESIAN_POINT ( 'NONE',  ( 1.187103655206665341E-13, -1.471239430227492580E-14, 34.00000000000000000 ) ) ;
#162 = CARTESIAN_POINT ( 'NONE',  ( 1.204561061900881197E-13, 3.283974596215557984, 34.50000000000000000 ) ) ;
#163 = PERSON_AND_ORGANIZATION ( #21, #116 ) ;
#164 = ADVANCED_FACE ( 'NONE', ( #218, #177 ), #139, .T. ) ;
#165 = PERSON_AND_ORGANIZATION ( #21, #116 ) ;
#166 = EDGE_LOOP ( 'NONE', ( #131 ) ) ;
#167 = COORDINATED_UNIVERSAL_TIME_OFFSET ( 1, 0, .AHEAD. ) ;
#168 = EDGE_CURVE ( 'NONE', #101, #101, #135, .T. ) ;
#169 = CIRCLE ( 'NONE', #216, 3.150000000000005240 ) ;
#170 = DIRECTION ( 'NONE',  ( 1.510825004591027855E-30, 1.000000000000000000, 4.327174794786742882E-16 ) ) ;
#171 = ORIENTED_EDGE ( 'NONE', *, *, #168, .F. ) ;
#172 = APPROVAL ( #205, 'UNSPECIFIED' ) ;
#173 = ORIENTED_EDGE ( 'NONE', *, *, #26, .F. ) ;
#174 = CC_DESIGN_APPROVAL ( #42, ( #71 ) ) ;
#175 = ORIENTED_EDGE ( 'NONE', *, *, #168, .T. ) ;
#176 = CARTESIAN_POINT ( 'NONE',  ( 1.204561061900881197E-13, -1.492875304201426452E-14, 34.50000000000000000 ) ) ;
#177 = FACE_OUTER_BOUND ( 'NONE', #114, .T. ) ;
#178 = CONICAL_SURFACE ( 'NONE', #191, 4.500000000000010658, 0.5235987755983018133 ) ;
#179 = DIRECTION ( 'NONE',  ( -3.491481338843133355E-15, 1.224646799147353207E-16, -1.000000000000000000 ) ) ;
#180 = DIRECTION ( 'NONE',  ( 0.0000000000000000000, 1.000000000000000000, 0.0000000000000000000 ) ) ;
#181 = ADVANCED_FACE ( 'NONE', ( #231 ), #234, .F. ) ;
#182 = DIRECTION ( 'NONE',  ( -3.491481338843133355E-15, 1.224646799147353207E-16, -1.000000000000000000 ) ) ;
#183 = VERTEX_POINT ( 'NONE', #255 ) ;
#184 = DATE_TIME_ROLE ( 'classification_date' ) ;
#185 = CALENDAR_DATE ( 2021, 13, 10 ) ;
#186 = PERSON_AND_ORGANIZATION ( #21, #116 ) ;
#187 = FACE_OUTER_BOUND ( 'NONE', #46, .T. ) ;
#188 = ORIENTED_EDGE ( 'NONE', *, *, #151, .F. ) ;
#189 = ORIENTED_EDGE ( 'NONE', *, *, #26, .T. ) ;
#190 = DIRECTION ( 'NONE',  ( 0.0000000000000000000, 1.000000000000000000, 0.0000000000000000000 ) ) ;
#191 = AXIS2_PLACEMENT_3D ( 'NONE', #147, #208, #66 ) ;
#192 = AXIS2_PLACEMENT_3D ( 'NONE', #35, #141, #249 ) ;
#193 = ORIENTED_EDGE ( 'NONE', *, *, #63, .T. ) ;
#194 = DIRECTION ( 'NONE',  ( 3.491481338843133355E-15, -1.224646799147353207E-16, 1.000000000000000000 ) ) ;
#195 = DIRECTION ( 'NONE',  ( 4.275831445896958607E-31, 1.000000000000000000, 1.224646799147353207E-16 ) ) ;
#196 =( GEOMETRIC_REPRESENTATION_CONTEXT ( 3 ) GLOBAL_UNCERTAINTY_ASSIGNED_CONTEXT ( ( #127 ) ) GLOBAL_UNIT_ASSIGNED_CONTEXT ( ( #122, #201, #80 ) ) REPRESENTATION_CONTEXT ( 'NONE', 'WORKASPACE' ) );
#197 = CARTESIAN_POINT ( 'NONE',  ( 8.379555213223520053E-14, 2.999519565323705910E-32, 24.00000000000000000 ) ) ;
#198 = CC_DESIGN_PERSON_AND_ORGANIZATION_ASSIGNMENT ( #81, #260, ( #33 ) ) ;
#199 = VERTEX_POINT ( 'NONE', #99 ) ;
#200 = CARTESIAN_POINT ( 'NONE',  ( 1.247862147374694611E-13, -4.000000000000011546, 35.74019237886464140 ) ) ;
#201 =( NAMED_UNIT ( * ) PLANE_ANGLE_UNIT ( ) SI_UNIT ( $, .RADIAN. ) );
#202 = CIRCLE ( 'NONE', #91, 3.283974596215572639 ) ;
#203 = PERSON_AND_ORGANIZATION ( #21, #116 ) ;
#204 = COORDINATED_UNIVERSAL_TIME_OFFSET ( 1, 0, .AHEAD. ) ;
#205 = APPROVAL_STATUS ( 'not_yet_approved' ) ;
#206 = EDGE_LOOP ( 'NONE', ( #24 ) ) ;
#207 = AXIS2_PLACEMENT_3D ( 'NONE', #240, #17, #219 ) ;
#208 = DIRECTION ( 'NONE',  ( 3.491481338843133355E-15, -4.327174794786742882E-16, 1.000000000000000000 ) ) ;
#209 = ORIENTED_EDGE ( 'NONE', *, *, #214, .F. ) ;
#210 = CARTESIAN_POINT ( 'NONE',  ( 2.730338406975331420E-13, -9.576737969332304047E-15, 78.20000000000001705 ) ) ;
#211 = AXIS2_PLACEMENT_3D ( 'NONE', #197, #194, #217 ) ;
#212 = FACE_OUTER_BOUND ( 'NONE', #166, .T. ) ;
#213 = DIRECTION ( 'NONE',  ( -4.891250652412019820E-31, -1.000000000000000000, -1.376764663473654245E-16 ) ) ;
#214 = EDGE_CURVE ( 'NONE', #183, #183, #137, .T. ) ;
#215 = DIRECTION ( 'NONE',  ( 0.0000000000000000000, 1.000000000000000000, 0.0000000000000000000 ) ) ;
#216 = AXIS2_PLACEMENT_3D ( 'NONE', #96, #182, #213 ) ;
#217 = DIRECTION ( 'NONE',  ( -4.275831445896958607E-31, -1.000000000000000000, -1.224646799147353207E-16 ) ) ;
#218 = FACE_OUTER_BOUND ( 'NONE', #5, .T. ) ;
#219 = DIRECTION ( 'NONE',  ( 1.000000000000000000, 0.0000000000000000000, 0.0000000000000000000 ) ) ;
#220 = TOROIDAL_SURFACE ( 'NONE', #110, 4.150000000000010125, 0.9999999999999995559 ) ;
#221 = APPLICATION_PROTOCOL_DEFINITION ( 'international standard', 'config_control_design', 1994, #89 ) ;
#222 = APPROVAL_STATUS ( 'not_yet_approved' ) ;
#223 = CLOSED_SHELL ( 'NONE', ( #262, #164, #142 ) ) ;
#224 = ADVANCED_FACE ( 'NONE', ( #97, #55 ), #52, .T. ) ;
#225 = EDGE_LOOP ( 'NONE', ( #134 ) ) ;
#226 = FACE_OUTER_BOUND ( 'NONE', #107, .T. ) ;
#227 = DIRECTION ( 'NONE',  ( 0.0000000000000000000, -1.000000000000000000, 0.0000000000000000000 ) ) ;
#228 = ORIENTED_EDGE ( 'NONE', *, *, #37, .F. ) ;
#229 = CC_DESIGN_SECURITY_CLASSIFICATION ( #71, ( #33 ) ) ;
#230 = DIRECTION ( 'NONE',  ( -3.491481338843133355E-15, 1.224646799147353207E-16, -1.000000000000000000 ) ) ;
#231 = FACE_OUTER_BOUND ( 'NONE', #1, .T. ) ;
#232 = DIRECTION ( 'NONE',  ( 0.0000000000000000000, 1.000000000000000000, 0.0000000000000000000 ) ) ;
#233 = AXIS2_PLACEMENT_3D ( 'NONE', #7, #179, #29 ) ;
#234 = PLANE ( 'NONE',  #54 ) ;
#235 = CARTESIAN_POINT ( 'NONE',  ( 8.379555213223520053E-14, -3.150000000000015454, 24.00000000000000000 ) ) ;
#236 = APPROVAL_ROLE ( '' ) ;
#237 = APPROVAL_STATUS ( 'not_yet_approved' ) ;
#238 = LOCAL_TIME ( 13, 36, 11.00000000000000000, #83 ) ;
#239 = EDGE_CURVE ( 'NONE', #79, #79, #4, .T. ) ;
#240 = CARTESIAN_POINT ( 'NONE',  ( 0.0000000000000000000, 0.0000000000000000000, 0.0000000000000000000 ) ) ;
#241 = APPROVAL_ROLE ( '' ) ;
#242 = AXIS2_PLACEMENT_3D ( 'NONE', #159, #140, #30 ) ;
#243 = DIRECTION ( 'NONE',  ( 3.491481338843133355E-15, -1.224646799147353207E-16, 1.000000000000000000 ) ) ;
#244 = DIRECTION ( 'NONE',  ( -3.491481338843133355E-15, 1.224646799147353207E-16, -1.000000000000000000 ) ) ;
#245 = PLANE ( 'NONE',  #123 ) ;
#246 = AXIS2_PLACEMENT_3D ( 'NONE', #118, #230, #215 ) ;
#247 = ORIENTED_EDGE ( 'NONE', *, *, #151, .T. ) ;
#248 = CARTESIAN_POINT ( 'NONE',  ( 8.379555213223520053E-14, -1.038521950748818292E-14, 24.00000000000000000 ) ) ;
#249 = DIRECTION ( 'NONE',  ( -3.851859888774481340E-31, -1.000000000000000000, -1.084202172485507146E-16 ) ) ;
#250 = APPROVAL ( #222, 'UNSPECIFIED' ) ;
#251 = ADVANCED_BREP_SHAPE_REPRESENTATION ( '43538', ( #67, #64, #207 ), #196 ) ;
#252 = CARTESIAN_POINT ( 'NONE',  ( 2.758270257686075477E-13, 3.199999999999989964, 79.00000000000000000 ) ) ;
#253 = CARTESIAN_POINT ( 'NONE',  ( 2.758270257686075477E-13, 2.399615652258957393E-32, 79.00000000000000000 ) ) ;
#254 = CC_DESIGN_PERSON_AND_ORGANIZATION_ASSIGNMENT ( #40, #130, ( #68 ) ) ;
#255 = CARTESIAN_POINT ( 'NONE',  ( 1.187103655206665341E-13, 3.149999999999995470, 34.00000000000000000 ) ) ;
#256 = COORDINATED_UNIVERSAL_TIME_OFFSET ( 1, 0, .AHEAD. ) ;
#257 = CIRCLE ( 'NONE', #82, 3.999999999999999112 ) ;
#258 = LOCAL_TIME ( 13, 36, 11.00000000000000000, #204 ) ;
#259 = DATE_AND_TIME ( #124, #143 ) ;
#260 = PERSON_AND_ORGANIZATION_ROLE ( 'design_supplier' ) ;
#261 = APPROVAL_DATE_TIME ( #69, #42 ) ;
#262 = ADVANCED_FACE ( 'NONE', ( #51 ), #48, .T. ) ;
#263 = DIRECTION ( 'NONE',  ( 4.275831445896957731E-31, 1.000000000000000000, 1.224646799147353454E-16 ) ) ;
ENDSEC;
END-ISO-10303-21;
