ISO-10303-21;
HEADER;
FILE_DESCRIPTION (( 'STEP AP203' ),
    '1' );
FILE_NAME ('43537.step',
    '2021-11-25T13:42:33',
    ( '' ),
    ( '' ),
    'SwSTEP 2.0',
    'SolidWorks 2019',
    '' );
FILE_SCHEMA (( 'CONFIG_CONTROL_DESIGN' ));
ENDSEC;

DATA;
#1 = CIRCLE ( 'NONE', #175, 1.999999999999995781 ) ;
#2 = APPROVAL_STATUS ( 'not_yet_approved' ) ;
#3 = VERTEX_POINT ( 'NONE', #18 ) ;
#4 = CC_DESIGN_PERSON_AND_ORGANIZATION_ASSIGNMENT ( #97, #166, ( #100 ) ) ;
#5 = CALENDAR_DATE ( 2021, 25, 11 ) ;
#6 = CIRCLE ( 'NONE', #197, 1.700000000000001510 ) ;
#7 = ORIENTED_EDGE ( 'NONE', *, *, #123, .F. ) ;
#8 = EDGE_CURVE ( 'NONE', #3, #3, #9, .T. ) ;
#9 = CIRCLE ( 'NONE', #140, 1.999999999999995781 ) ;
#10 = EDGE_LOOP ( 'NONE', ( #28 ) ) ;
#11 = CARTESIAN_POINT ( 'NONE',  ( 1.745740669421566678E-13, -6.123233995736766085E-15, 50.00000000000000000 ) ) ;
#12 = CARTESIAN_POINT ( 'NONE',  ( 1.194366056829609791E-14, -4.189272192963432147E-16, 3.420800344948573546 ) ) ;
#13 = FACE_BOUND ( 'NONE', #88, .T. ) ;
#14 = DATE_TIME_ROLE ( 'classification_date' ) ;
#15 = DIRECTION ( 'NONE',  ( -3.491481338843133355E-15, 1.224646799147353207E-16, -1.000000000000000000 ) ) ;
#16 = ADVANCED_FACE ( 'NONE', ( #67, #56 ), #107, .T. ) ;
#17 = DIRECTION ( 'NONE',  ( -3.491481338843133355E-15, 1.224646799147353207E-16, -1.000000000000000000 ) ) ;
#18 = CARTESIAN_POINT ( 'NONE',  ( 1.194366056829609949E-14, 1.999999999999995337, 3.420800344948573990 ) ) ;
#19 = DIRECTION ( 'NONE',  ( -4.275831445896958607E-31, -1.000000000000000000, -1.224646799147353207E-16 ) ) ;
#20 = APPROVAL_ROLE ( '' ) ;
#21 = SECURITY_CLASSIFICATION_LEVEL ( 'unclassified' ) ;
#22 = DATE_TIME_ROLE ( 'creation_date' ) ;
#23 = UNCERTAINTY_MEASURE_WITH_UNIT (LENGTH_MEASURE( 1.000000000000000082E-05 ), #162, 'distance_accuracy_value', 'NONE');
#24 = APPLICATION_PROTOCOL_DEFINITION ( 'international standard', 'config_control_design', 1994, #111 ) ;
#25 = ORIENTED_EDGE ( 'NONE', *, *, #82, .T. ) ;
#26 =( NAMED_UNIT ( * ) SI_UNIT ( $, .STERADIAN. ) SOLID_ANGLE_UNIT ( ) );
#27 = DIRECTION ( 'NONE',  ( -3.491481338843133355E-15, 1.224646799147353207E-16, -1.000000000000000000 ) ) ;
#28 = ORIENTED_EDGE ( 'NONE', *, *, #200, .T. ) ;
#29 = SECURITY_CLASSIFICATION ( '', '', #21 ) ;
#30 = APPROVAL_PERSON_ORGANIZATION ( #139, #103, #32 ) ;
#31 = PRODUCT_DEFINITION_SHAPE ( 'NONE', 'NONE',  #74 ) ;
#32 = APPROVAL_ROLE ( '' ) ;
#33 = AXIS2_PLACEMENT_3D ( 'NONE', #90, #138, #156 ) ;
#34 = DIRECTION ( 'NONE',  ( 4.275831445896958607E-31, 1.000000000000000000, 1.224646799147353454E-16 ) ) ;
#35 = CARTESIAN_POINT ( 'NONE',  ( -1.182959891489476121E-32, 0.02499999999999972730, -3.388131789017201356E-18 ) ) ;
#36 = CARTESIAN_POINT ( 'NONE',  ( 1.745740669421566678E-13, 1.699999999999995293, 50.00000000000000000 ) ) ;
#37 = PLANE ( 'NONE',  #148 ) ;
#38 = ADVANCED_FACE ( 'NONE', ( #99 ), #151, .T. ) ;
#39 = PERSON ( 'UNSPECIFIED', 'UNSPECIFIED', 'UNSPECIFIED', ('UNSPECIFIED'), ('UNSPECIFIED'), ('UNSPECIFIED') ) ;
#40 = DATE_AND_TIME ( #5, #72 ) ;
#41 = CC_DESIGN_DATE_AND_TIME_ASSIGNMENT ( #171, #14, ( #29 ) ) ;
#42 = DIRECTION ( 'NONE',  ( -4.275831445896958607E-31, -1.000000000000000000, -1.224646799147353207E-16 ) ) ;
#43 = COORDINATED_UNIVERSAL_TIME_OFFSET ( 1, 0, .AHEAD. ) ;
#44 = ORIENTED_EDGE ( 'NONE', *, *, #109, .F. ) ;
#45 = APPROVAL ( #168, 'UNSPECIFIED' ) ;
#46 = FACE_OUTER_BOUND ( 'NONE', #173, .T. ) ;
#47 =( GEOMETRIC_REPRESENTATION_CONTEXT ( 3 ) GLOBAL_UNCERTAINTY_ASSIGNED_CONTEXT ( ( #23 ) ) GLOBAL_UNIT_ASSIGNED_CONTEXT ( ( #162, #117, #26 ) ) REPRESENTATION_CONTEXT ( 'NONE', 'WORKASPACE' ) );
#48 = ADVANCED_BREP_SHAPE_REPRESENTATION ( '43537', ( #95, #163, #159 ), #47 ) ;
#49 = ADVANCED_FACE ( 'NONE', ( #73, #62 ), #96, .T. ) ;
#50 = COORDINATED_UNIVERSAL_TIME_OFFSET ( 1, 0, .AHEAD. ) ;
#51 = CC_DESIGN_PERSON_AND_ORGANIZATION_ASSIGNMENT ( #112, #65, ( #64 ) ) ;
#52 = VERTEX_POINT ( 'NONE', #36 ) ;
#53 = APPROVAL_DATE_TIME ( #193, #203 ) ;
#54 = VERTEX_POINT ( 'NONE', #80 ) ;
#55 = AXIS2_PLACEMENT_3D ( 'NONE', #101, #201, #183 ) ;
#56 = FACE_OUTER_BOUND ( 'NONE', #133, .T. ) ;
#57 = EDGE_LOOP ( 'NONE', ( #44 ) ) ;
#58 = DIRECTION ( 'NONE',  ( 0.0000000000000000000, 0.0000000000000000000, 1.000000000000000000 ) ) ;
#59 = CC_DESIGN_APPROVAL ( #103, ( #29 ) ) ;
#60 = DIRECTION ( 'NONE',  ( 7.703719777548960053E-31, 1.000000000000000000, 2.168404344971013552E-16 ) ) ;
#61 = DIRECTION ( 'NONE',  ( 0.0000000000000000000, 1.000000000000000000, 0.0000000000000000000 ) ) ;
#62 = FACE_OUTER_BOUND ( 'NONE', #116, .T. ) ;
#63 = COORDINATED_UNIVERSAL_TIME_OFFSET ( 1, 0, .AHEAD. ) ;
#64 = PRODUCT ( '43537', '43537', '', ( #130 ) ) ;
#65 = PERSON_AND_ORGANIZATION_ROLE ( 'design_owner' ) ;
#66 = AXIS2_PLACEMENT_3D ( 'NONE', #160, #147, #34 ) ;
#67 = FACE_BOUND ( 'NONE', #199, .T. ) ;
#68 = COORDINATED_UNIVERSAL_TIME_OFFSET ( 1, 0, .AHEAD. ) ;
#69 = ORIENTED_EDGE ( 'NONE', *, *, #200, .F. ) ;
#70 = ORIENTED_EDGE ( 'NONE', *, *, #8, .F. ) ;
#71 = DIRECTION ( 'NONE',  ( -3.491481338843133355E-15, 1.224646799147353207E-16, -1.000000000000000000 ) ) ;
#72 = LOCAL_TIME ( 14, 42, 33.00000000000000000, #63 ) ;
#73 = FACE_OUTER_BOUND ( 'NONE', #89, .T. ) ;
#74 = PRODUCT_DEFINITION ( 'UNKNOWN', '', #100, #167 ) ;
#75 = DIRECTION ( 'NONE',  ( 0.0000000000000000000, 1.000000000000000000, 0.0000000000000000000 ) ) ;
#76 = AXIS2_PLACEMENT_3D ( 'NONE', #129, #17, #127 ) ;
#77 = LOCAL_TIME ( 14, 42, 33.00000000000000000, #98 ) ;
#78 = CC_DESIGN_DATE_AND_TIME_ASSIGNMENT ( #131, #22, ( #74 ) ) ;
#79 = CALENDAR_DATE ( 2021, 25, 11 ) ;
#80 = CARTESIAN_POINT ( 'NONE',  ( 1.735266225405037214E-13, 1.999999999999995337, 49.69999999999999574 ) ) ;
#81 = APPLICATION_CONTEXT ( 'configuration controlled 3d designs of mechanical parts and assemblies' ) ;
#82 = EDGE_CURVE ( 'NONE', #54, #54, #181, .T. ) ;
#83 = FACE_OUTER_BOUND ( 'NONE', #153, .T. ) ;
#84 = LOCAL_TIME ( 14, 42, 33.00000000000000000, #68 ) ;
#85 = LOCAL_TIME ( 14, 42, 33.00000000000000000, #43 ) ;
#86 = PERSON_AND_ORGANIZATION_ROLE ( 'creator' ) ;
#87 = ADVANCED_FACE ( 'NONE', ( #176, #13 ), #172, .T. ) ;
#88 = EDGE_LOOP ( 'NONE', ( #174 ) ) ;
#89 = EDGE_LOOP ( 'NONE', ( #70 ) ) ;
#90 = CARTESIAN_POINT ( 'NONE',  ( 0.0000000000000000000, 0.0000000000000000000, 0.0000000000000000000 ) ) ;
#91 = CLOSED_SHELL ( 'NONE', ( #135, #49, #87, #164 ) ) ;
#92 = ORGANIZATION ( 'UNSPECIFIED', 'UNSPECIFIED', '' ) ;
#93 = CC_DESIGN_SECURITY_CLASSIFICATION ( #29, ( #100 ) ) ;
#94 = DIRECTION ( 'NONE',  ( 7.703719777548960053E-31, 1.000000000000000000, 2.168404344971013552E-16 ) ) ;
#95 = MANIFOLD_SOLID_BREP ( 'Corps-Déplacer/Copier1[1]', #91 ) ;
#96 = CYLINDRICAL_SURFACE ( 'NONE', #33, 1.999999999999998224 ) ;
#97 = PERSON_AND_ORGANIZATION ( #39, #92 ) ;
#98 = COORDINATED_UNIVERSAL_TIME_OFFSET ( 1, 0, .AHEAD. ) ;
#99 = FACE_OUTER_BOUND ( 'NONE', #57, .T. ) ;
#100 = PRODUCT_DEFINITION_FORMATION_WITH_SPECIFIED_SOURCE ( 'ANY', '', #64, .NOT_KNOWN. ) ;
#101 = CARTESIAN_POINT ( 'NONE',  ( 1.194366056829609791E-14, -4.189272192963432147E-16, 3.420800344948573546 ) ) ;
#102 = DIRECTION ( 'NONE',  ( -3.491481338843133355E-15, 1.224646799147353207E-16, -1.000000000000000000 ) ) ;
#103 = APPROVAL ( #2, 'UNSPECIFIED' ) ;
#104 = AXIS2_PLACEMENT_3D ( 'NONE', #141, #122, #106 ) ;
#105 = CARTESIAN_POINT ( 'NONE',  ( 1.735266225405037214E-13, -6.086494591762344436E-15, 49.69999999999999574 ) ) ;
#106 = DIRECTION ( 'NONE',  ( -4.275831445896958607E-31, -1.000000000000000000, -1.224646799147353207E-16 ) ) ;
#107 = CONICAL_SURFACE ( 'NONE', #55, 1.999999999999995781, 0.5235987755982928205 ) ;
#108 = CARTESIAN_POINT ( 'NONE',  ( 1.194366056829609949E-14, 1.999999999999995337, 3.420800344948573990 ) ) ;
#109 = EDGE_CURVE ( 'NONE', #110, #110, #1, .T. ) ;
#110 = VERTEX_POINT ( 'NONE', #108 ) ;
#111 = APPLICATION_CONTEXT ( 'configuration controlled 3d designs of mechanical parts and assemblies' ) ;
#112 = PERSON_AND_ORGANIZATION ( #39, #92 ) ;
#113 = CC_DESIGN_PERSON_AND_ORGANIZATION_ASSIGNMENT ( #115, #86, ( #74 ) ) ;
#114 = CALENDAR_DATE ( 2021, 25, 11 ) ;
#115 = PERSON_AND_ORGANIZATION ( #39, #92 ) ;
#116 = EDGE_LOOP ( 'NONE', ( #25 ) ) ;
#117 =( NAMED_UNIT ( * ) PLANE_ANGLE_UNIT ( ) SI_UNIT ( $, .RADIAN. ) );
#118 = CLOSED_SHELL ( 'NONE', ( #158, #16, #38 ) ) ;
#119 = PLANE ( 'NONE',  #104 ) ;
#120 = CARTESIAN_POINT ( 'NONE',  ( 1.745740669421566678E-13, -6.123233995736766085E-15, 50.00000000000000000 ) ) ;
#121 = DATE_AND_TIME ( #79, #194 ) ;
#122 = DIRECTION ( 'NONE',  ( 3.491481338843133355E-15, -1.224646799147353207E-16, 1.000000000000000000 ) ) ;
#123 = EDGE_CURVE ( 'NONE', #52, #52, #6, .T. ) ;
#124 = APPROVAL_DATE_TIME ( #40, #45 ) ;
#125 = CC_DESIGN_APPROVAL ( #203, ( #74 ) ) ;
#126 = SHAPE_DEFINITION_REPRESENTATION ( #31, #48 ) ;
#127 = DIRECTION ( 'NONE',  ( 4.275831445896958607E-31, 1.000000000000000000, 1.224646799147353207E-16 ) ) ;
#128 = APPROVAL_STATUS ( 'not_yet_approved' ) ;
#129 = CARTESIAN_POINT ( 'NONE',  ( 1.745740669421566678E-13, 1.274795815262571030E-32, 50.00000000000000000 ) ) ;
#130 = MECHANICAL_CONTEXT ( 'NONE', #111, 'mechanical' ) ;
#131 = DATE_AND_TIME ( #114, #84 ) ;
#132 = CIRCLE ( 'NONE', #66, 0.02499999999999972730 ) ;
#133 = EDGE_LOOP ( 'NONE', ( #170 ) ) ;
#134 = EDGE_LOOP ( 'NONE', ( #152 ) ) ;
#135 = ADVANCED_FACE ( 'NONE', ( #46 ), #119, .F. ) ;
#136 = DIRECTION ( 'NONE',  ( -3.491481338843133355E-15, 1.224646799147353207E-16, -1.000000000000000000 ) ) ;
#137 = CALENDAR_DATE ( 2021, 25, 11 ) ;
#138 = DIRECTION ( 'NONE',  ( -3.491481338843133355E-15, 1.224646799147353207E-16, -1.000000000000000000 ) ) ;
#139 = PERSON_AND_ORGANIZATION ( #39, #92 ) ;
#140 = AXIS2_PLACEMENT_3D ( 'NONE', #12, #102, #94 ) ;
#141 = CARTESIAN_POINT ( 'NONE',  ( 1.194366056829609949E-14, -7.417678331264828782E-16, 3.420800344948573990 ) ) ;
#142 = FACE_OUTER_BOUND ( 'NONE', #10, .T. ) ;
#143 = PERSON_AND_ORGANIZATION ( #39, #92 ) ;
#144 = AXIS2_PLACEMENT_3D ( 'NONE', #11, #71, #188 ) ;
#145 = CC_DESIGN_PERSON_AND_ORGANIZATION_ASSIGNMENT ( #189, #155, ( #29 ) ) ;
#146 = DIRECTION ( 'NONE',  ( 1.000000000000000000, 0.0000000000000000000, 0.0000000000000000000 ) ) ;
#147 = DIRECTION ( 'NONE',  ( -3.491481338843133355E-15, 1.224646799147353207E-16, -1.000000000000000000 ) ) ;
#148 = AXIS2_PLACEMENT_3D ( 'NONE', #192, #191, #19 ) ;
#149 = APPROVAL_ROLE ( '' ) ;
#150 = AXIS2_PLACEMENT_3D ( 'NONE', #186, #196, #42 ) ;
#151 = PLANE ( 'NONE',  #150 ) ;
#152 = ORIENTED_EDGE ( 'NONE', *, *, #82, .F. ) ;
#153 = EDGE_LOOP ( 'NONE', ( #7 ) ) ;
#154 = AXIS2_PLACEMENT_3D ( 'NONE', #105, #15, #61 ) ;
#155 = PERSON_AND_ORGANIZATION_ROLE ( 'classification_officer' ) ;
#156 = DIRECTION ( 'NONE',  ( 4.275831445896957731E-31, 1.000000000000000000, 1.224646799147353207E-16 ) ) ;
#157 = PLANE ( 'NONE',  #76 ) ;
#158 = ADVANCED_FACE ( 'NONE', ( #142 ), #37, .F. ) ;
#159 = AXIS2_PLACEMENT_3D ( 'NONE', #179, #58, #146 ) ;
#160 = CARTESIAN_POINT ( 'NONE',  ( -2.251917752963704032E-32, 7.898664207163915044E-34, -6.449748786885551402E-18 ) ) ;
#161 = APPROVAL_PERSON_ORGANIZATION ( #143, #203, #20 ) ;
#162 =( LENGTH_UNIT ( ) NAMED_UNIT ( * ) SI_UNIT ( .MILLI., .METRE. ) );
#163 = MANIFOLD_SOLID_BREP ( 'Corps-Déplacer/Copier1[2]', #118 ) ;
#164 = ADVANCED_FACE ( 'NONE', ( #83 ), #157, .F. ) ;
#165 = APPROVAL_PERSON_ORGANIZATION ( #185, #45, #149 ) ;
#166 = PERSON_AND_ORGANIZATION_ROLE ( 'design_supplier' ) ;
#167 = DESIGN_CONTEXT ( 'detailed design', #81, 'design' ) ;
#168 = APPROVAL_STATUS ( 'not_yet_approved' ) ;
#169 = PRODUCT_RELATED_PRODUCT_CATEGORY ( 'detail', '', ( #64 ) ) ;
#170 = ORIENTED_EDGE ( 'NONE', *, *, #109, .T. ) ;
#171 = DATE_AND_TIME ( #137, #85 ) ;
#172 = CONICAL_SURFACE ( 'NONE', #144, 1.700000000000001510, 0.7853981633974338461 ) ;
#173 = EDGE_LOOP ( 'NONE', ( #187 ) ) ;
#174 = ORIENTED_EDGE ( 'NONE', *, *, #123, .T. ) ;
#175 = AXIS2_PLACEMENT_3D ( 'NONE', #202, #136, #60 ) ;
#176 = FACE_OUTER_BOUND ( 'NONE', #134, .T. ) ;
#177 = APPROVAL_DATE_TIME ( #121, #103 ) ;
#178 = PERSON_AND_ORGANIZATION_ROLE ( 'creator' ) ;
#179 = CARTESIAN_POINT ( 'NONE',  ( 0.0000000000000000000, 0.0000000000000000000, 0.0000000000000000000 ) ) ;
#180 = VERTEX_POINT ( 'NONE', #35 ) ;
#181 = CIRCLE ( 'NONE', #154, 2.000000000000001332 ) ;
#182 = CC_DESIGN_PERSON_AND_ORGANIZATION_ASSIGNMENT ( #190, #178, ( #100 ) ) ;
#183 = DIRECTION ( 'NONE',  ( -7.703719777548960053E-31, -1.000000000000000000, -2.168404344971013552E-16 ) ) ;
#184 = CC_DESIGN_APPROVAL ( #45, ( #100 ) ) ;
#185 = PERSON_AND_ORGANIZATION ( #39, #92 ) ;
#186 = CARTESIAN_POINT ( 'NONE',  ( 1.194366056829609949E-14, -7.417678331264828782E-16, 3.420800344948573990 ) ) ;
#187 = ORIENTED_EDGE ( 'NONE', *, *, #8, .T. ) ;
#188 = DIRECTION ( 'NONE',  ( 0.0000000000000000000, 1.000000000000000000, 0.0000000000000000000 ) ) ;
#189 = PERSON_AND_ORGANIZATION ( #39, #92 ) ;
#190 = PERSON_AND_ORGANIZATION ( #39, #92 ) ;
#191 = DIRECTION ( 'NONE',  ( 3.491481338843133355E-15, -1.224646799147353207E-16, 1.000000000000000000 ) ) ;
#192 = CARTESIAN_POINT ( 'NONE',  ( -1.125958876481852016E-32, 3.949332103581957522E-34, -3.224874393442775701E-18 ) ) ;
#193 = DATE_AND_TIME ( #198, #77 ) ;
#194 = LOCAL_TIME ( 14, 42, 33.00000000000000000, #50 ) ;
#195 = APPLICATION_PROTOCOL_DEFINITION ( 'international standard', 'config_control_design', 1994, #81 ) ;
#196 = DIRECTION ( 'NONE',  ( 3.491481338843133355E-15, -1.224646799147353207E-16, 1.000000000000000000 ) ) ;
#197 = AXIS2_PLACEMENT_3D ( 'NONE', #120, #27, #75 ) ;
#198 = CALENDAR_DATE ( 2021, 25, 11 ) ;
#199 = EDGE_LOOP ( 'NONE', ( #69 ) ) ;
#200 = EDGE_CURVE ( 'NONE', #180, #180, #132, .T. ) ;
#201 = DIRECTION ( 'NONE',  ( 3.491481338843133355E-15, -1.224646799147353207E-16, 1.000000000000000000 ) ) ;
#202 = CARTESIAN_POINT ( 'NONE',  ( 1.194366056829609791E-14, -4.189272192963432147E-16, 3.420800344948573546 ) ) ;
#203 = APPROVAL ( #128, 'UNSPECIFIED' ) ;
ENDSEC;
END-ISO-10303-21;
