ISO-10303-21;
HEADER;
FILE_DESCRIPTION (( 'STEP AP203' ),
    '1' );
FILE_NAME ('43536.step',
    '2021-11-25T13:42:32',
    ( '' ),
    ( '' ),
    'SwSTEP 2.0',
    'SolidWorks 2019',
    '' );
FILE_SCHEMA (( 'CONFIG_CONTROL_DESIGN' ));
ENDSEC;

DATA;
#1 = FACE_OUTER_BOUND ( 'NONE', #113, .T. ) ;
#2 = APPROVAL ( #30, 'UNSPECIFIED' ) ;
#3 = LOCAL_TIME ( 14, 42, 32.00000000000000000, #6 ) ;
#4 = CIRCLE ( 'NONE', #126, 0.02500000000000047670 ) ;
#5 = CIRCLE ( 'NONE', #163, 1.199999999999998623 ) ;
#6 = COORDINATED_UNIVERSAL_TIME_OFFSET ( 1, 0, .AHEAD. ) ;
#7 = PRODUCT_RELATED_PRODUCT_CATEGORY ( 'detail', '', ( #147 ) ) ;
#8 = AXIS2_PLACEMENT_3D ( 'NONE', #173, #77, #127 ) ;
#9 = ORIENTED_EDGE ( 'NONE', *, *, #131, .T. ) ;
#10 = CARTESIAN_POINT ( 'NONE',  ( 0.0000000000000000000, 0.0000000000000000000, 0.0000000000000000000 ) ) ;
#11 = ORIENTED_EDGE ( 'NONE', *, *, #144, .F. ) ;
#12 = PERSON_AND_ORGANIZATION_ROLE ( 'classification_officer' ) ;
#13 = DIRECTION ( 'NONE',  ( -3.491481338843133355E-15, 1.224646799147353207E-16, -1.000000000000000000 ) ) ;
#14 = DIRECTION ( 'NONE',  ( 0.0000000000000000000, 1.000000000000000000, 0.0000000000000000000 ) ) ;
#15 = DIRECTION ( 'NONE',  ( -4.275831445896958607E-31, -1.000000000000000000, -1.224646799147353207E-16 ) ) ;
#16 = PLANE ( 'NONE',  #32 ) ;
#17 = COORDINATED_UNIVERSAL_TIME_OFFSET ( 1, 0, .AHEAD. ) ;
#18 = ORGANIZATION ( 'UNSPECIFIED', 'UNSPECIFIED', '' ) ;
#19 = APPROVAL_PERSON_ORGANIZATION ( #152, #141, #75 ) ;
#20 = DIRECTION ( 'NONE',  ( -3.491481338843133355E-15, 1.224646799147353207E-16, -1.000000000000000000 ) ) ;
#21 = CONICAL_SURFACE ( 'NONE', #138, 1.499999999999995781, 0.5235987755982924874 ) ;
#22 = VERTEX_POINT ( 'NONE', #151 ) ;
#23 = PERSON_AND_ORGANIZATION_ROLE ( 'creator' ) ;
#24 = CALENDAR_DATE ( 2021, 25, 11 ) ;
#25 = CARTESIAN_POINT ( 'NONE',  ( -1.660437807218997924E-32, 5.824031831909370192E-34, -4.755682892377041628E-18 ) ) ;
#26 = EDGE_LOOP ( 'NONE', ( #154 ) ) ;
#27 = PERSON_AND_ORGANIZATION_ROLE ( 'design_supplier' ) ;
#28 = CC_DESIGN_DATE_AND_TIME_ASSIGNMENT ( #156, #104, ( #64 ) ) ;
#29 = APPROVAL_DATE_TIME ( #71, #2 ) ;
#30 = APPROVAL_STATUS ( 'not_yet_approved' ) ;
#31 = MANIFOLD_SOLID_BREP ( 'Corps-Déplacer/Copier1[2]', #119 ) ;
#32 = AXIS2_PLACEMENT_3D ( 'NONE', #35, #91, #92 ) ;
#33 = CC_DESIGN_PERSON_AND_ORGANIZATION_ASSIGNMENT ( #168, #27, ( #63 ) ) ;
#34 = CARTESIAN_POINT ( 'NONE',  ( -8.302189036094989622E-33, 2.912015915954685096E-34, -2.377841446188520814E-18 ) ) ;
#35 = CARTESIAN_POINT ( 'NONE',  ( 1.326762908760390423E-13, 8.998558695971067645E-33, 38.00000000000000000 ) ) ;
#36 = CIRCLE ( 'NONE', #158, 1.499999999999995781 ) ;
#37 = DIRECTION ( 'NONE',  ( 0.0000000000000000000, 1.000000000000000000, 0.0000000000000000000 ) ) ;
#38 = FACE_OUTER_BOUND ( 'NONE', #193, .T. ) ;
#39 = CIRCLE ( 'NONE', #81, 1.499999999999995781 ) ;
#40 = ORIENTED_EDGE ( 'NONE', *, *, #136, .T. ) ;
#41 = APPROVAL ( #195, 'UNSPECIFIED' ) ;
#42 = FACE_OUTER_BOUND ( 'NONE', #200, .T. ) ;
#43 = MECHANICAL_CONTEXT ( 'NONE', #128, 'mechanical' ) ;
#44 = CALENDAR_DATE ( 2021, 25, 11 ) ;
#45 = PLANE ( 'NONE',  #8 ) ;
#46 = APPROVAL_DATE_TIME ( #203, #141 ) ;
#47 = CALENDAR_DATE ( 2021, 25, 11 ) ;
#48 = ADVANCED_FACE ( 'NONE', ( #42, #100 ), #185, .T. ) ;
#49 = DIRECTION ( 'NONE',  ( -4.275831445896958607E-31, -1.000000000000000000, -1.224646799147353207E-16 ) ) ;
#50 = CC_DESIGN_DATE_AND_TIME_ASSIGNMENT ( #78, #129, ( #133 ) ) ;
#51 = FACE_OUTER_BOUND ( 'NONE', #184, .T. ) ;
#52 = AXIS2_PLACEMENT_3D ( 'NONE', #76, #139, #61 ) ;
#53 = UNCERTAINTY_MEASURE_WITH_UNIT (LENGTH_MEASURE( 1.000000000000000082E-05 ), #114, 'distance_accuracy_value', 'NONE');
#54 = EDGE_CURVE ( 'NONE', #110, #110, #4, .T. ) ;
#55 = DIRECTION ( 'NONE',  ( 0.0000000000000000000, 1.000000000000000000, 0.0000000000000000000 ) ) ;
#56 = CALENDAR_DATE ( 2021, 25, 11 ) ;
#57 = CARTESIAN_POINT ( 'NONE',  ( 8.919949032018599897E-15, -3.128696954238511181E-16, 2.554774941164123181 ) ) ;
#58 = ORIENTED_EDGE ( 'NONE', *, *, #131, .F. ) ;
#59 = FACE_BOUND ( 'NONE', #26, .T. ) ;
#60 = PERSON_AND_ORGANIZATION ( #181, #18 ) ;
#61 = DIRECTION ( 'NONE',  ( 0.0000000000000000000, 1.000000000000000000, 0.0000000000000000000 ) ) ;
#62 = PERSON_AND_ORGANIZATION ( #181, #18 ) ;
#63 = PRODUCT_DEFINITION_FORMATION_WITH_SPECIFIED_SOURCE ( 'ANY', '', #147, .NOT_KNOWN. ) ;
#64 = PRODUCT_DEFINITION ( 'UNKNOWN', '', #63, #80 ) ;
#65 = AXIS2_PLACEMENT_3D ( 'NONE', #34, #130, #15 ) ;
#66 = EDGE_LOOP ( 'NONE', ( #83 ) ) ;
#67 =( NAMED_UNIT ( * ) PLANE_ANGLE_UNIT ( ) SI_UNIT ( $, .RADIAN. ) );
#68 = CLOSED_SHELL ( 'NONE', ( #149, #96, #48, #172 ) ) ;
#69 = CARTESIAN_POINT ( 'NONE',  ( 0.0000000000000000000, 0.0000000000000000000, 0.0000000000000000000 ) ) ;
#70 = PRODUCT_DEFINITION_SHAPE ( 'NONE', 'NONE',  #64 ) ;
#71 = DATE_AND_TIME ( #47, #112 ) ;
#72 = CC_DESIGN_APPROVAL ( #41, ( #64 ) ) ;
#73 = FACE_OUTER_BOUND ( 'NONE', #148, .T. ) ;
#74 = ORIENTED_EDGE ( 'NONE', *, *, #136, .F. ) ;
#75 = APPROVAL_ROLE ( '' ) ;
#76 = CARTESIAN_POINT ( 'NONE',  ( 1.316288464743861212E-13, -4.616918432785521081E-15, 37.69999999999999574 ) ) ;
#77 = DIRECTION ( 'NONE',  ( 3.491481338843133355E-15, -1.224646799147353207E-16, 1.000000000000000000 ) ) ;
#78 = DATE_AND_TIME ( #186, #86 ) ;
#79 = CARTESIAN_POINT ( 'NONE',  ( 8.919949032018599897E-15, -7.386380110457804491E-16, 2.554774941164123181 ) ) ;
#80 = DESIGN_CONTEXT ( 'detailed design', #192, 'design' ) ;
#81 = AXIS2_PLACEMENT_3D ( 'NONE', #188, #20, #37 ) ;
#82 = APPLICATION_PROTOCOL_DEFINITION ( 'international standard', 'config_control_design', 1994, #192 ) ;
#83 = ORIENTED_EDGE ( 'NONE', *, *, #174, .F. ) ;
#84 = DIRECTION ( 'NONE',  ( 0.0000000000000000000, 0.0000000000000000000, 1.000000000000000000 ) ) ;
#85 = DIRECTION ( 'NONE',  ( 4.275831445896958607E-31, 1.000000000000000000, 1.224646799147353454E-16 ) ) ;
#86 = LOCAL_TIME ( 14, 42, 32.00000000000000000, #17 ) ;
#87 = ORIENTED_EDGE ( 'NONE', *, *, #174, .T. ) ;
#88 = PERSON_AND_ORGANIZATION ( #181, #18 ) ;
#89 = DIRECTION ( 'NONE',  ( -3.491481338843133355E-15, 1.224646799147353207E-16, -1.000000000000000000 ) ) ;
#90 = APPROVAL_ROLE ( '' ) ;
#91 = DIRECTION ( 'NONE',  ( -3.491481338843133355E-15, 1.224646799147353207E-16, -1.000000000000000000 ) ) ;
#92 = DIRECTION ( 'NONE',  ( 4.275831445896958607E-31, 1.000000000000000000, 1.224646799147353207E-16 ) ) ;
#93 = COORDINATED_UNIVERSAL_TIME_OFFSET ( 1, 0, .AHEAD. ) ;
#94 = APPROVAL_PERSON_ORGANIZATION ( #150, #41, #101 ) ;
#95 = DIRECTION ( 'NONE',  ( -3.491481338843133355E-15, 1.224646799147353207E-16, -1.000000000000000000 ) ) ;
#96 = ADVANCED_FACE ( 'NONE', ( #157, #73 ), #137, .T. ) ;
#97 = CARTESIAN_POINT ( 'NONE',  ( 1.326762908760390423E-13, 1.199999999999993960, 38.00000000000000000 ) ) ;
#98 = PERSON_AND_ORGANIZATION_ROLE ( 'design_owner' ) ;
#99 = CC_DESIGN_SECURITY_CLASSIFICATION ( #133, ( #63 ) ) ;
#100 = FACE_BOUND ( 'NONE', #177, .T. ) ;
#101 = APPROVAL_ROLE ( '' ) ;
#102 = SHAPE_DEFINITION_REPRESENTATION ( #70, #109 ) ;
#103 = CC_DESIGN_PERSON_AND_ORGANIZATION_ASSIGNMENT ( #60, #106, ( #63 ) ) ;
#104 = DATE_TIME_ROLE ( 'creation_date' ) ;
#105 = EDGE_LOOP ( 'NONE', ( #40 ) ) ;
#106 = PERSON_AND_ORGANIZATION_ROLE ( 'creator' ) ;
#107 = FACE_OUTER_BOUND ( 'NONE', #105, .T. ) ;
#108 = DIRECTION ( 'NONE',  ( -3.491481338843133355E-15, 1.224646799147353207E-16, -1.000000000000000000 ) ) ;
#109 = ADVANCED_BREP_SHAPE_REPRESENTATION ( '43536', ( #165, #31, #124 ), #176 ) ;
#110 = VERTEX_POINT ( 'NONE', #161 ) ;
#111 = CARTESIAN_POINT ( 'NONE',  ( 1.316288464743861212E-13, 1.499999999999994005, 37.69999999999999574 ) ) ;
#112 = LOCAL_TIME ( 14, 42, 32.00000000000000000, #93 ) ;
#113 = EDGE_LOOP ( 'NONE', ( #11 ) ) ;
#114 =( LENGTH_UNIT ( ) NAMED_UNIT ( * ) SI_UNIT ( .MILLI., .METRE. ) );
#115 = DATE_AND_TIME ( #56, #153 ) ;
#116 = LOCAL_TIME ( 14, 42, 32.00000000000000000, #167 ) ;
#117 = ADVANCED_FACE ( 'NONE', ( #59, #107 ), #21, .T. ) ;
#118 = APPROVAL_DATE_TIME ( #115, #41 ) ;
#119 = CLOSED_SHELL ( 'NONE', ( #159, #117, #194 ) ) ;
#120 = DIRECTION ( 'NONE',  ( -3.491481338843133355E-15, 1.224646799147353207E-16, -1.000000000000000000 ) ) ;
#121 = COORDINATED_UNIVERSAL_TIME_OFFSET ( 1, 0, .AHEAD. ) ;
#122 = DIRECTION ( 'NONE',  ( 4.275831445896958607E-31, 1.000000000000000000, 1.224646799147352961E-16 ) ) ;
#123 = CC_DESIGN_PERSON_AND_ORGANIZATION_ASSIGNMENT ( #88, #12, ( #133 ) ) ;
#124 = AXIS2_PLACEMENT_3D ( 'NONE', #69, #84, #134 ) ;
#125 = CARTESIAN_POINT ( 'NONE',  ( 8.919949032018599897E-15, -3.128696954238511181E-16, 2.554774941164123181 ) ) ;
#126 = AXIS2_PLACEMENT_3D ( 'NONE', #25, #89, #122 ) ;
#127 = DIRECTION ( 'NONE',  ( -4.275831445896958607E-31, -1.000000000000000000, -1.224646799147353207E-16 ) ) ;
#128 = APPLICATION_CONTEXT ( 'configuration controlled 3d designs of mechanical parts and assemblies' ) ;
#129 = DATE_TIME_ROLE ( 'classification_date' ) ;
#130 = DIRECTION ( 'NONE',  ( 3.491481338843133355E-15, -1.224646799147353207E-16, 1.000000000000000000 ) ) ;
#131 = EDGE_CURVE ( 'NONE', #143, #143, #187, .T. ) ;
#132 = CARTESIAN_POINT ( 'NONE',  ( 8.919949032018599897E-15, 1.499999999999995559, 2.554774941164123181 ) ) ;
#133 = SECURITY_CLASSIFICATION ( '', '', #155 ) ;
#134 = DIRECTION ( 'NONE',  ( 1.000000000000000000, 0.0000000000000000000, 0.0000000000000000000 ) ) ;
#135 = DIRECTION ( 'NONE',  ( 0.0000000000000000000, 1.000000000000000000, 0.0000000000000000000 ) ) ;
#136 = EDGE_CURVE ( 'NONE', #22, #22, #36, .T. ) ;
#137 = CYLINDRICAL_SURFACE ( 'NONE', #145, 1.499999999999996891 ) ;
#138 = AXIS2_PLACEMENT_3D ( 'NONE', #57, #202, #170 ) ;
#139 = DIRECTION ( 'NONE',  ( -3.491481338843133355E-15, 1.224646799147353207E-16, -1.000000000000000000 ) ) ;
#140 = CARTESIAN_POINT ( 'NONE',  ( 1.326762908760390423E-13, -4.653657836759941941E-15, 38.00000000000000000 ) ) ;
#141 = APPROVAL ( #201, 'UNSPECIFIED' ) ;
#142 = CC_DESIGN_APPROVAL ( #141, ( #63 ) ) ;
#143 = VERTEX_POINT ( 'NONE', #111 ) ;
#144 = EDGE_CURVE ( 'NONE', #191, #191, #5, .T. ) ;
#145 = AXIS2_PLACEMENT_3D ( 'NONE', #10, #13, #85 ) ;
#146 = APPROVAL_PERSON_ORGANIZATION ( #62, #2, #90 ) ;
#147 = PRODUCT ( '43536', '43536', '', ( #43 ) ) ;
#148 = EDGE_LOOP ( 'NONE', ( #9 ) ) ;
#149 = ADVANCED_FACE ( 'NONE', ( #182 ), #45, .F. ) ;
#150 = PERSON_AND_ORGANIZATION ( #181, #18 ) ;
#151 = CARTESIAN_POINT ( 'NONE',  ( 8.919949032018599897E-15, 1.499999999999995559, 2.554774941164123181 ) ) ;
#152 = PERSON_AND_ORGANIZATION ( #181, #18 ) ;
#153 = LOCAL_TIME ( 14, 42, 32.00000000000000000, #121 ) ;
#154 = ORIENTED_EDGE ( 'NONE', *, *, #54, .F. ) ;
#155 = SECURITY_CLASSIFICATION_LEVEL ( 'unclassified' ) ;
#156 = DATE_AND_TIME ( #44, #3 ) ;
#157 = FACE_OUTER_BOUND ( 'NONE', #66, .T. ) ;
#158 = AXIS2_PLACEMENT_3D ( 'NONE', #125, #108, #14 ) ;
#159 = ADVANCED_FACE ( 'NONE', ( #38 ), #160, .F. ) ;
#160 = PLANE ( 'NONE',  #65 ) ;
#161 = CARTESIAN_POINT ( 'NONE',  ( -5.914799457447379239E-33, 0.02500000000000047670, -1.694065894508600678E-18 ) ) ;
#162 = PLANE ( 'NONE',  #190 ) ;
#163 = AXIS2_PLACEMENT_3D ( 'NONE', #140, #120, #135 ) ;
#164 = PERSON_AND_ORGANIZATION ( #181, #18 ) ;
#165 = MANIFOLD_SOLID_BREP ( 'Corps-Déplacer/Copier1[1]', #68 ) ;
#166 = ORIENTED_EDGE ( 'NONE', *, *, #144, .T. ) ;
#167 = COORDINATED_UNIVERSAL_TIME_OFFSET ( 1, 0, .AHEAD. ) ;
#168 = PERSON_AND_ORGANIZATION ( #181, #18 ) ;
#169 = CC_DESIGN_APPROVAL ( #2, ( #133 ) ) ;
#170 = DIRECTION ( 'NONE',  ( 0.0000000000000000000, -1.000000000000000000, 0.0000000000000000000 ) ) ;
#171 =( NAMED_UNIT ( * ) SI_UNIT ( $, .STERADIAN. ) SOLID_ANGLE_UNIT ( ) );
#172 = ADVANCED_FACE ( 'NONE', ( #1 ), #16, .F. ) ;
#173 = CARTESIAN_POINT ( 'NONE',  ( 8.919949032018599897E-15, -7.386380110457804491E-16, 2.554774941164123181 ) ) ;
#174 = EDGE_CURVE ( 'NONE', #178, #178, #39, .T. ) ;
#175 = CARTESIAN_POINT ( 'NONE',  ( 1.326762908760390423E-13, -4.653657836759941941E-15, 38.00000000000000000 ) ) ;
#176 =( GEOMETRIC_REPRESENTATION_CONTEXT ( 3 ) GLOBAL_UNCERTAINTY_ASSIGNED_CONTEXT ( ( #53 ) ) GLOBAL_UNIT_ASSIGNED_CONTEXT ( ( #114, #67, #171 ) ) REPRESENTATION_CONTEXT ( 'NONE', 'WORKASPACE' ) );
#177 = EDGE_LOOP ( 'NONE', ( #166 ) ) ;
#178 = VERTEX_POINT ( 'NONE', #132 ) ;
#179 = EDGE_LOOP ( 'NONE', ( #87 ) ) ;
#180 = PERSON_AND_ORGANIZATION ( #181, #18 ) ;
#181 = PERSON ( 'UNSPECIFIED', 'UNSPECIFIED', 'UNSPECIFIED', ('UNSPECIFIED'), ('UNSPECIFIED'), ('UNSPECIFIED') ) ;
#182 = FACE_OUTER_BOUND ( 'NONE', #179, .T. ) ;
#183 = CC_DESIGN_PERSON_AND_ORGANIZATION_ASSIGNMENT ( #180, #23, ( #64 ) ) ;
#184 = EDGE_LOOP ( 'NONE', ( #74 ) ) ;
#185 = CONICAL_SURFACE ( 'NONE', #197, 1.199999999999998623, 0.7853981633974453924 ) ;
#186 = CALENDAR_DATE ( 2021, 25, 11 ) ;
#187 = CIRCLE ( 'NONE', #52, 1.499999999999998446 ) ;
#188 = CARTESIAN_POINT ( 'NONE',  ( 8.919949032018599897E-15, -3.128696954238511181E-16, 2.554774941164123181 ) ) ;
#189 = DIRECTION ( 'NONE',  ( 3.491481338843133355E-15, -1.224646799147353207E-16, 1.000000000000000000 ) ) ;
#190 = AXIS2_PLACEMENT_3D ( 'NONE', #79, #189, #49 ) ;
#191 = VERTEX_POINT ( 'NONE', #97 ) ;
#192 = APPLICATION_CONTEXT ( 'configuration controlled 3d designs of mechanical parts and assemblies' ) ;
#193 = EDGE_LOOP ( 'NONE', ( #196 ) ) ;
#194 = ADVANCED_FACE ( 'NONE', ( #51 ), #162, .T. ) ;
#195 = APPROVAL_STATUS ( 'not_yet_approved' ) ;
#196 = ORIENTED_EDGE ( 'NONE', *, *, #54, .T. ) ;
#197 = AXIS2_PLACEMENT_3D ( 'NONE', #175, #95, #55 ) ;
#198 = APPLICATION_PROTOCOL_DEFINITION ( 'international standard', 'config_control_design', 1994, #128 ) ;
#199 = CC_DESIGN_PERSON_AND_ORGANIZATION_ASSIGNMENT ( #164, #98, ( #147 ) ) ;
#200 = EDGE_LOOP ( 'NONE', ( #58 ) ) ;
#201 = APPROVAL_STATUS ( 'not_yet_approved' ) ;
#202 = DIRECTION ( 'NONE',  ( 3.491481338843133355E-15, -1.224646799147353207E-16, 1.000000000000000000 ) ) ;
#203 = DATE_AND_TIME ( #24, #116 ) ;
ENDSEC;
END-ISO-10303-21;
