ISO-10303-21;
HEADER;
FILE_DESCRIPTION (( 'STEP AP203' ),
    '1' );
FILE_NAME ('43527.step',
    '2021-11-01T09:16:22',
    ( '' ),
    ( '' ),
    'SwSTEP 2.0',
    'SolidWorks 2019',
    '' );
FILE_SCHEMA (( 'CONFIG_CONTROL_DESIGN' ));
ENDSEC;

DATA;
#1 = CARTESIAN_POINT ( 'NONE',  ( 0.0000000000000000000, 0.0000000000000000000, 0.0000000000000000000 ) ) ;
#2 = EDGE_LOOP ( 'NONE', ( #36 ) ) ;
#3 = DATE_TIME_ROLE ( 'classification_date' ) ;
#4 = DIRECTION ( 'NONE',  ( 0.0000000000000000000, 1.000000000000000000, 0.0000000000000000000 ) ) ;
#5 = ORIENTED_EDGE ( 'NONE', *, *, #96, .T. ) ;
#6 = CARTESIAN_POINT ( 'NONE',  ( 3.201776876318363735E-14, -2.664024771102683457E-16, 9.170253441421055030 ) ) ;
#7 = VERTEX_POINT ( 'NONE', #45 ) ;
#8 = DIRECTION ( 'NONE',  ( -4.285855558155653280E-31, -1.000000000000000000, -1.227517819005651059E-16 ) ) ;
#9 = APPLICATION_CONTEXT ( 'configuration controlled 3d designs of mechanical parts and assemblies' ) ;
#10 = CARTESIAN_POINT ( 'NONE',  ( 1.316288464743861212E-13, -4.616918432785521081E-15, 37.69999999999999574 ) ) ;
#11 = CC_DESIGN_PERSON_AND_ORGANIZATION_ASSIGNMENT ( #86, #31, ( #22 ) ) ;
#12 = AXIS2_PLACEMENT_3D ( 'NONE', #6, #198, #201 ) ;
#13 = DIRECTION ( 'NONE',  ( 4.275831445896958607E-31, 1.000000000000000000, 1.224646799147353207E-16 ) ) ;
#14 = PERSON_AND_ORGANIZATION ( #73, #76 ) ;
#15 = DIRECTION ( 'NONE',  ( 0.0000000000000000000, 0.0000000000000000000, 1.000000000000000000 ) ) ;
#16 = CC_DESIGN_SECURITY_CLASSIFICATION ( #62, ( #140 ) ) ;
#17 = DATE_AND_TIME ( #179, #191 ) ;
#18 = COORDINATED_UNIVERSAL_TIME_OFFSET ( 1, 0, .AHEAD. ) ;
#19 = EDGE_LOOP ( 'NONE', ( #23 ) ) ;
#20 = EDGE_LOOP ( 'NONE', ( #110 ) ) ;
#21 = APPLICATION_CONTEXT ( 'configuration controlled 3d designs of mechanical parts and assemblies' ) ;
#22 = PRODUCT_DEFINITION ( 'UNKNOWN', '', #140, #39 ) ;
#23 = ORIENTED_EDGE ( 'NONE', *, *, #212, .T. ) ;
#24 = CIRCLE ( 'NONE', #181, 1.199999999999997957 ) ;
#25 = FACE_OUTER_BOUND ( 'NONE', #2, .T. ) ;
#26 = FACE_OUTER_BOUND ( 'NONE', #20, .T. ) ;
#27 = CARTESIAN_POINT ( 'NONE',  ( 1.316288464743861212E-13, 1.499999999999993117, 37.69999999999999574 ) ) ;
#28 = DIRECTION ( 'NONE',  ( -3.491481338843133355E-15, 1.224646799147353207E-16, -1.000000000000000000 ) ) ;
#29 = DIRECTION ( 'NONE',  ( 3.491481338843133355E-15, -1.224646799147353207E-16, 1.000000000000000000 ) ) ;
#30 = AXIS2_PLACEMENT_3D ( 'NONE', #1, #15, #54 ) ;
#31 = PERSON_AND_ORGANIZATION_ROLE ( 'creator' ) ;
#32 = EDGE_CURVE ( 'NONE', #83, #83, #24, .T. ) ;
#33 = APPLICATION_PROTOCOL_DEFINITION ( 'international standard', 'config_control_design', 1994, #21 ) ;
#34 = AXIS2_PLACEMENT_3D ( 'NONE', #200, #172, #146 ) ;
#35 = APPROVAL_PERSON_ORGANIZATION ( #108, #71, #85 ) ;
#36 = ORIENTED_EDGE ( 'NONE', *, *, #182, .F. ) ;
#37 = AXIS2_PLACEMENT_3D ( 'NONE', #173, #28, #68 ) ;
#38 = ORIENTED_EDGE ( 'NONE', *, *, #199, .T. ) ;
#39 = DESIGN_CONTEXT ( 'detailed design', #21, 'design' ) ;
#40 = ORIENTED_EDGE ( 'NONE', *, *, #32, .T. ) ;
#41 = CIRCLE ( 'NONE', #12, 1.499999999999995781 ) ;
#42 = APPROVAL_PERSON_ORGANIZATION ( #145, #78, #209 ) ;
#43 = DIRECTION ( 'NONE',  ( 3.491481338843133355E-15, -1.227517819005651059E-16, 1.000000000000000000 ) ) ;
#44 = CYLINDRICAL_SURFACE ( 'NONE', #139, 1.199999999999999734 ) ;
#45 = CARTESIAN_POINT ( 'NONE',  ( 2.444036937190192718E-14, -1.200000000000001510, 6.999999999999998224 ) ) ;
#46 = AXIS2_PLACEMENT_3D ( 'NONE', #117, #100, #47 ) ;
#47 = DIRECTION ( 'NONE',  ( 0.0000000000000000000, -1.000000000000000000, 0.0000000000000000000 ) ) ;
#48 = APPROVAL ( #121, 'UNSPECIFIED' ) ;
#49 = DIRECTION ( 'NONE',  ( -4.275831445896958607E-31, -1.000000000000000000, -1.224646799147353207E-16 ) ) ;
#50 = AXIS2_PLACEMENT_3D ( 'NONE', #197, #216, #61 ) ;
#51 = COORDINATED_UNIVERSAL_TIME_OFFSET ( 1, 0, .AHEAD. ) ;
#52 = DATE_AND_TIME ( #206, #159 ) ;
#53 = ADVANCED_FACE ( 'NONE', ( #60, #127 ), #55, .F. ) ;
#54 = DIRECTION ( 'NONE',  ( 1.000000000000000000, 0.0000000000000000000, 0.0000000000000000000 ) ) ;
#55 = TOROIDAL_SURFACE ( 'NONE', #34, 9.199999999999999289, 8.000000000000000000 ) ;
#56 = ORIENTED_EDGE ( 'NONE', *, *, #199, .F. ) ;
#57 = APPROVAL_PERSON_ORGANIZATION ( #205, #48, #180 ) ;
#58 = CC_DESIGN_APPROVAL ( #78, ( #62 ) ) ;
#59 = ADVANCED_FACE ( 'NONE', ( #80 ), #66, .F. ) ;
#60 = FACE_OUTER_BOUND ( 'NONE', #210, .T. ) ;
#61 = DIRECTION ( 'NONE',  ( 0.0000000000000000000, 1.000000000000000000, 0.0000000000000000000 ) ) ;
#62 = SECURITY_CLASSIFICATION ( '', '', #189 ) ;
#63 = CARTESIAN_POINT ( 'NONE',  ( 1.326762908760390423E-13, 1.199999999999993294, 38.00000000000000000 ) ) ;
#64 = APPROVAL_DATE_TIME ( #120, #78 ) ;
#65 = DIRECTION ( 'NONE',  ( 3.491481338843133355E-15, -1.227517819005651059E-16, 1.000000000000000000 ) ) ;
#66 = PLANE ( 'NONE',  #223 ) ;
#67 = CIRCLE ( 'NONE', #157, 1.200000000000000622 ) ;
#68 = DIRECTION ( 'NONE',  ( 4.275831445896958607E-31, 1.000000000000000000, 1.224646799147353207E-16 ) ) ;
#69 = VERTEX_POINT ( 'NONE', #202 ) ;
#70 = COORDINATED_UNIVERSAL_TIME_OFFSET ( 1, 0, .AHEAD. ) ;
#71 = APPROVAL ( #137, 'UNSPECIFIED' ) ;
#72 = MANIFOLD_SOLID_BREP ( 'Corps-Déplacer/Copier1[2]', #126 ) ;
#73 = PERSON ( 'UNSPECIFIED', 'UNSPECIFIED', 'UNSPECIFIED', ('UNSPECIFIED'), ('UNSPECIFIED'), ('UNSPECIFIED') ) ;
#74 = AXIS2_PLACEMENT_3D ( 'NONE', #82, #174, #13 ) ;
#75 = ADVANCED_FACE ( 'NONE', ( #25, #147 ), #144, .T. ) ;
#76 = ORGANIZATION ( 'UNSPECIFIED', 'UNSPECIFIED', '' ) ;
#77 = EDGE_LOOP ( 'NONE', ( #167 ) ) ;
#78 = APPROVAL ( #91, 'UNSPECIFIED' ) ;
#79 = CARTESIAN_POINT ( 'NONE',  ( -5.143026669786780257E-31, -4.467482701150651491E-33, -1.473021382806779841E-16 ) ) ;
#80 = FACE_OUTER_BOUND ( 'NONE', #128, .T. ) ;
#81 = CARTESIAN_POINT ( 'NONE',  ( 2.444036937190192718E-14, -1.200000000000001510, 6.999999999999998224 ) ) ;
#82 = CARTESIAN_POINT ( 'NONE',  ( 1.326762908760390423E-13, 8.998558695971062171E-33, 38.00000000000000000 ) ) ;
#83 = VERTEX_POINT ( 'NONE', #63 ) ;
#84 = ADVANCED_FACE ( 'NONE', ( #98, #26 ), #44, .T. ) ;
#85 = APPROVAL_ROLE ( '' ) ;
#86 = PERSON_AND_ORGANIZATION ( #73, #76 ) ;
#87 = PERSON_AND_ORGANIZATION ( #73, #76 ) ;
#88 = COORDINATED_UNIVERSAL_TIME_OFFSET ( 1, 0, .AHEAD. ) ;
#89 = APPROVAL_DATE_TIME ( #17, #71 ) ;
#90 = PRODUCT_RELATED_PRODUCT_CATEGORY ( 'detail', '', ( #97 ) ) ;
#91 = APPROVAL_STATUS ( 'not_yet_approved' ) ;
#92 = ORIENTED_EDGE ( 'NONE', *, *, #156, .T. ) ;
#93 = CARTESIAN_POINT ( 'NONE',  ( 1.326762908760390423E-13, -4.653657836759941941E-15, 38.00000000000000000 ) ) ;
#94 = EDGE_LOOP ( 'NONE', ( #40 ) ) ;
#95 = LOCAL_TIME ( 10, 16, 22.00000000000000000, #88 ) ;
#96 = EDGE_CURVE ( 'NONE', #185, #185, #125, .T. ) ;
#97 = PRODUCT ( '43527', '43527', '', ( #143 ) ) ;
#98 = FACE_OUTER_BOUND ( 'NONE', #164, .T. ) ;
#99 = DIRECTION ( 'NONE',  ( 3.491481338843133355E-15, -1.227517819005651059E-16, 1.000000000000000000 ) ) ;
#100 = DIRECTION ( 'NONE',  ( 3.491481338843133355E-15, -1.227517819005651059E-16, 1.000000000000000000 ) ) ;
#101 = FACE_OUTER_BOUND ( 'NONE', #77, .T. ) ;
#102 = PLANE ( 'NONE',  #74 ) ;
#103 = DATE_AND_TIME ( #142, #204 ) ;
#104 = PERSON_AND_ORGANIZATION_ROLE ( 'design_owner' ) ;
#105 = DATE_AND_TIME ( #153, #130 ) ;
#106 = CLOSED_SHELL ( 'NONE', ( #114, #75, #217, #53, #109 ) ) ;
#107 = CC_DESIGN_DATE_AND_TIME_ASSIGNMENT ( #105, #161, ( #22 ) ) ;
#108 = PERSON_AND_ORGANIZATION ( #73, #76 ) ;
#109 = ADVANCED_FACE ( 'NONE', ( #101 ), #129, .F. ) ;
#110 = ORIENTED_EDGE ( 'NONE', *, *, #156, .F. ) ;
#111 = AXIS2_PLACEMENT_3D ( 'NONE', #79, #99, #118 ) ;
#112 = CARTESIAN_POINT ( 'NONE',  ( -6.413731847436034514E-31, 0.0000000000000000000, -1.836965810494968570E-16 ) ) ;
#113 = FACE_OUTER_BOUND ( 'NONE', #124, .T. ) ;
#114 = ADVANCED_FACE ( 'NONE', ( #131, #196 ), #150, .T. ) ;
#115 = DIRECTION ( 'NONE',  ( -4.275831445896958607E-31, -1.000000000000000000, -1.224646799147353207E-16 ) ) ;
#116 = CC_DESIGN_APPROVAL ( #48, ( #140 ) ) ;
#117 = CARTESIAN_POINT ( 'NONE',  ( 2.444036937190192718E-14, -8.592624733039554945E-16, 6.999999999999998224 ) ) ;
#118 = DIRECTION ( 'NONE',  ( -4.285855558155653280E-31, -1.000000000000000000, -1.227517819005651305E-16 ) ) ;
#119 = CC_DESIGN_PERSON_AND_ORGANIZATION_ASSIGNMENT ( #14, #203, ( #62 ) ) ;
#120 = DATE_AND_TIME ( #152, #95 ) ;
#121 = APPROVAL_STATUS ( 'not_yet_approved' ) ;
#122 =( NAMED_UNIT ( * ) PLANE_ANGLE_UNIT ( ) SI_UNIT ( $, .RADIAN. ) );
#123 = APPLICATION_PROTOCOL_DEFINITION ( 'international standard', 'config_control_design', 1994, #9 ) ;
#124 = EDGE_LOOP ( 'NONE', ( #183 ) ) ;
#125 = CIRCLE ( 'NONE', #46, 1.200000000000000622 ) ;
#126 = CLOSED_SHELL ( 'NONE', ( #162, #84, #59 ) ) ;
#127 = FACE_OUTER_BOUND ( 'NONE', #19, .T. ) ;
#128 = EDGE_LOOP ( 'NONE', ( #56 ) ) ;
#129 = PLANE ( 'NONE',  #175 ) ;
#130 = LOCAL_TIME ( 10, 16, 22.00000000000000000, #18 ) ;
#131 = FACE_OUTER_BOUND ( 'NONE', #168, .T. ) ;
#132 = ADVANCED_BREP_SHAPE_REPRESENTATION ( '43527', ( #218, #72, #30 ), #158 ) ;
#133 = CC_DESIGN_PERSON_AND_ORGANIZATION_ASSIGNMENT ( #177, #138, ( #140 ) ) ;
#134 = CARTESIAN_POINT ( 'NONE',  ( 2.444036937190192718E-14, -8.592624733039554945E-16, 6.999999999999998224 ) ) ;
#135 = CARTESIAN_POINT ( 'NONE',  ( 2.444036937190193033E-14, -4.047688110612565927E-15, 6.999999999999999112 ) ) ;
#136 = DIRECTION ( 'NONE',  ( 3.491481338843133355E-15, -1.224646799147353207E-16, 1.000000000000000000 ) ) ;
#137 = APPROVAL_STATUS ( 'not_yet_approved' ) ;
#138 = PERSON_AND_ORGANIZATION_ROLE ( 'design_supplier' ) ;
#139 = AXIS2_PLACEMENT_3D ( 'NONE', #112, #65, #8 ) ;
#140 = PRODUCT_DEFINITION_FORMATION_WITH_SPECIFIED_SOURCE ( 'ANY', '', #97, .NOT_KNOWN. ) ;
#141 = CC_DESIGN_PERSON_AND_ORGANIZATION_ASSIGNMENT ( #87, #104, ( #97 ) ) ;
#142 = CALENDAR_DATE ( 2021, 1, 11 ) ;
#143 = MECHANICAL_CONTEXT ( 'NONE', #9, 'mechanical' ) ;
#144 = CONICAL_SURFACE ( 'NONE', #50, 1.199999999999997957, 0.7853981633974450594 ) ;
#145 = PERSON_AND_ORGANIZATION ( #73, #76 ) ;
#146 = DIRECTION ( 'NONE',  ( -4.347612056767884799E-31, -1.000000000000000000, -1.227517819005651059E-16 ) ) ;
#147 = FACE_BOUND ( 'NONE', #94, .T. ) ;
#148 = VERTEX_POINT ( 'NONE', #192 ) ;
#149 = PRODUCT_DEFINITION_SHAPE ( 'NONE', 'NONE',  #22 ) ;
#150 = CYLINDRICAL_SURFACE ( 'NONE', #37, 1.499999999999995781 ) ;
#151 = AXIS2_PLACEMENT_3D ( 'NONE', #10, #188, #220 ) ;
#152 = CALENDAR_DATE ( 2021, 1, 11 ) ;
#153 = CALENDAR_DATE ( 2021, 1, 11 ) ;
#154 =( NAMED_UNIT ( * ) SI_UNIT ( $, .STERADIAN. ) SOLID_ANGLE_UNIT ( ) );
#155 = PERSON_AND_ORGANIZATION ( #73, #76 ) ;
#156 = EDGE_CURVE ( 'NONE', #7, #7, #67, .T. ) ;
#157 = AXIS2_PLACEMENT_3D ( 'NONE', #134, #43, #169 ) ;
#158 =( GEOMETRIC_REPRESENTATION_CONTEXT ( 3 ) GLOBAL_UNCERTAINTY_ASSIGNED_CONTEXT ( ( #213 ) ) GLOBAL_UNIT_ASSIGNED_CONTEXT ( ( #178, #122, #154 ) ) REPRESENTATION_CONTEXT ( 'NONE', 'WORKASPACE' ) );
#159 = LOCAL_TIME ( 10, 16, 22.00000000000000000, #51 ) ;
#160 = PERSON_AND_ORGANIZATION_ROLE ( 'creator' ) ;
#161 = DATE_TIME_ROLE ( 'creation_date' ) ;
#162 = ADVANCED_FACE ( 'NONE', ( #215 ), #184, .T. ) ;
#163 = ORIENTED_EDGE ( 'NONE', *, *, #182, .T. ) ;
#164 = EDGE_LOOP ( 'NONE', ( #38 ) ) ;
#165 = DIRECTION ( 'NONE',  ( -3.491481338843133355E-15, 1.224646799147353207E-16, -1.000000000000000000 ) ) ;
#166 = AXIS2_PLACEMENT_3D ( 'NONE', #170, #136, #115 ) ;
#167 = ORIENTED_EDGE ( 'NONE', *, *, #96, .F. ) ;
#168 = EDGE_LOOP ( 'NONE', ( #163 ) ) ;
#169 = DIRECTION ( 'NONE',  ( 0.0000000000000000000, -1.000000000000000000, 0.0000000000000000000 ) ) ;
#170 = CARTESIAN_POINT ( 'NONE',  ( 2.444036937190193033E-14, -4.047688110612565927E-15, 6.999999999999999112 ) ) ;
#171 = CC_DESIGN_APPROVAL ( #71, ( #22 ) ) ;
#172 = DIRECTION ( 'NONE',  ( 3.491481338843133355E-15, -1.227517819005651059E-16, 1.000000000000000000 ) ) ;
#173 = CARTESIAN_POINT ( 'NONE',  ( 0.0000000000000000000, 0.0000000000000000000, 0.0000000000000000000 ) ) ;
#174 = DIRECTION ( 'NONE',  ( -3.491481338843133355E-15, 1.224646799147353207E-16, -1.000000000000000000 ) ) ;
#175 = AXIS2_PLACEMENT_3D ( 'NONE', #135, #29, #187 ) ;
#176 = SHAPE_DEFINITION_REPRESENTATION ( #149, #132 ) ;
#177 = PERSON_AND_ORGANIZATION ( #73, #76 ) ;
#178 =( LENGTH_UNIT ( ) NAMED_UNIT ( * ) SI_UNIT ( .MILLI., .METRE. ) );
#179 = CALENDAR_DATE ( 2021, 1, 11 ) ;
#180 = APPROVAL_ROLE ( '' ) ;
#181 = AXIS2_PLACEMENT_3D ( 'NONE', #93, #165, #4 ) ;
#182 = EDGE_CURVE ( 'NONE', #186, #186, #190, .T. ) ;
#183 = ORIENTED_EDGE ( 'NONE', *, *, #32, .F. ) ;
#184 = PLANE ( 'NONE',  #166 ) ;
#185 = VERTEX_POINT ( 'NONE', #81 ) ;
#186 = VERTEX_POINT ( 'NONE', #27 ) ;
#187 = DIRECTION ( 'NONE',  ( -4.275831445896958607E-31, -1.000000000000000000, -1.224646799147353207E-16 ) ) ;
#188 = DIRECTION ( 'NONE',  ( -3.491481338843133355E-15, 1.224646799147353207E-16, -1.000000000000000000 ) ) ;
#189 = SECURITY_CLASSIFICATION_LEVEL ( 'unclassified' ) ;
#190 = CIRCLE ( 'NONE', #151, 1.499999999999997558 ) ;
#191 = LOCAL_TIME ( 10, 16, 22.00000000000000000, #70 ) ;
#192 = CARTESIAN_POINT ( 'NONE',  ( -1.028605333957356051E-30, -1.199999999999999067, -2.946042765613560174E-16 ) ) ;
#193 = ORIENTED_EDGE ( 'NONE', *, *, #212, .F. ) ;
#194 = CC_DESIGN_PERSON_AND_ORGANIZATION_ASSIGNMENT ( #155, #160, ( #140 ) ) ;
#195 = EDGE_LOOP ( 'NONE', ( #92 ) ) ;
#196 = FACE_OUTER_BOUND ( 'NONE', #211, .T. ) ;
#197 = CARTESIAN_POINT ( 'NONE',  ( 1.326762908760390423E-13, -4.653657836759941941E-15, 38.00000000000000000 ) ) ;
#198 = DIRECTION ( 'NONE',  ( -3.491481338843133355E-15, 1.227517819005651059E-16, -1.000000000000000000 ) ) ;
#199 = EDGE_CURVE ( 'NONE', #148, #148, #208, .T. ) ;
#200 = CARTESIAN_POINT ( 'NONE',  ( 2.444036937190192718E-14, 0.0000000000000000000, 6.999999999999998224 ) ) ;
#201 = DIRECTION ( 'NONE',  ( 0.0000000000000000000, 1.000000000000000000, 0.0000000000000000000 ) ) ;
#202 = CARTESIAN_POINT ( 'NONE',  ( 3.201776876318363735E-14, 1.499999999999995559, 9.170253441421055030 ) ) ;
#203 = PERSON_AND_ORGANIZATION_ROLE ( 'classification_officer' ) ;
#204 = LOCAL_TIME ( 10, 16, 22.00000000000000000, #221 ) ;
#205 = PERSON_AND_ORGANIZATION ( #73, #76 ) ;
#206 = CALENDAR_DATE ( 2021, 1, 11 ) ;
#207 = CC_DESIGN_DATE_AND_TIME_ASSIGNMENT ( #52, #3, ( #62 ) ) ;
#208 = CIRCLE ( 'NONE', #111, 1.199999999999999067 ) ;
#209 = APPROVAL_ROLE ( '' ) ;
#210 = EDGE_LOOP ( 'NONE', ( #5 ) ) ;
#211 = EDGE_LOOP ( 'NONE', ( #193 ) ) ;
#212 = EDGE_CURVE ( 'NONE', #69, #69, #41, .T. ) ;
#213 = UNCERTAINTY_MEASURE_WITH_UNIT (LENGTH_MEASURE( 1.000000000000000082E-05 ), #178, 'distance_accuracy_value', 'NONE');
#214 = DIRECTION ( 'NONE',  ( 3.491481338843133355E-15, -1.224646799147353207E-16, 1.000000000000000000 ) ) ;
#215 = FACE_OUTER_BOUND ( 'NONE', #195, .T. ) ;
#216 = DIRECTION ( 'NONE',  ( -3.491481338843133355E-15, 1.224646799147353207E-16, -1.000000000000000000 ) ) ;
#217 = ADVANCED_FACE ( 'NONE', ( #113 ), #102, .F. ) ;
#218 = MANIFOLD_SOLID_BREP ( 'Corps-Déplacer/Copier1[1]', #106 ) ;
#219 = CARTESIAN_POINT ( 'NONE',  ( -6.413803915257455362E-31, 2.249659577954771652E-32, -1.836986451539392583E-16 ) ) ;
#220 = DIRECTION ( 'NONE',  ( 0.0000000000000000000, 1.000000000000000000, 0.0000000000000000000 ) ) ;
#221 = COORDINATED_UNIVERSAL_TIME_OFFSET ( 1, 0, .AHEAD. ) ;
#222 = APPROVAL_DATE_TIME ( #103, #48 ) ;
#223 = AXIS2_PLACEMENT_3D ( 'NONE', #219, #214, #49 ) ;
ENDSEC;
END-ISO-10303-21;
