ISO-10303-21;
HEADER;
FILE_DESCRIPTION (( 'STEP AP203' ),
    '1' );
FILE_NAME ('43498.step',
    '2021-10-08T05:53:51',
    ( '' ),
    ( '' ),
    'SwSTEP 2.0',
    'SolidWorks 2019',
    '' );
FILE_SCHEMA (( 'CONFIG_CONTROL_DESIGN' ));
ENDSEC;

DATA;
#1 = COORDINATED_UNIVERSAL_TIME_OFFSET ( 1, 0, .AHEAD. ) ;
#2 = DIRECTION ( 'NONE',  ( -3.930469274259673845E-31, -1.000000000000000000, -1.106328747434190686E-16 ) ) ;
#3 = CARTESIAN_POINT ( 'NONE',  ( 3.142333204958820020E-14, 3.674411467521536907E-33, 9.000000000000000000 ) ) ;
#4 = DIRECTION ( 'NONE',  ( 4.275831445896958607E-31, 1.000000000000000000, 1.224646799147353207E-16 ) ) ;
#5 = ORIENTED_EDGE ( 'NONE', *, *, #138, .F. ) ;
#6 = VERTEX_POINT ( 'NONE', #204 ) ;
#7 = DIRECTION ( 'NONE',  ( 0.0000000000000000000, 1.000000000000000000, 0.0000000000000000000 ) ) ;
#8 = FACE_OUTER_BOUND ( 'NONE', #21, .T. ) ;
#9 = DIRECTION ( 'NONE',  ( -3.491481338843133355E-15, 1.224646799147353207E-16, -1.000000000000000000 ) ) ;
#10 = APPROVAL_PERSON_ORGANIZATION ( #83, #86, #221 ) ;
#11 = DATE_AND_TIME ( #188, #218 ) ;
#12 = DATE_AND_TIME ( #223, #34 ) ;
#13 = EDGE_CURVE ( 'NONE', #182, #182, #87, .T. ) ;
#14 = AXIS2_PLACEMENT_3D ( 'NONE', #62, #216, #44 ) ;
#15 = DATE_TIME_ROLE ( 'classification_date' ) ;
#16 = DESIGN_CONTEXT ( 'detailed design', #147, 'design' ) ;
#17 = COORDINATED_UNIVERSAL_TIME_OFFSET ( 1, 0, .AHEAD. ) ;
#18 = FACE_OUTER_BOUND ( 'NONE', #41, .T. ) ;
#19 = EDGE_LOOP ( 'NONE', ( #197 ) ) ;
#20 = PRODUCT ( '43498', '43498', '', ( #166 ) ) ;
#21 = EDGE_LOOP ( 'NONE', ( #175 ) ) ;
#22 = ORIENTED_EDGE ( 'NONE', *, *, #203, .T. ) ;
#23 = FACE_BOUND ( 'NONE', #179, .T. ) ;
#24 = CC_DESIGN_PERSON_AND_ORGANIZATION_ASSIGNMENT ( #187, #143, ( #127 ) ) ;
#25 = CONICAL_SURFACE ( 'NONE', #63, 0.4899999999999988809, 1.047197551196592746 ) ;
#26 = DIRECTION ( 'NONE',  ( 0.0000000000000000000, 1.000000000000000000, 0.0000000000000000000 ) ) ;
#27 = AXIS2_PLACEMENT_3D ( 'NONE', #45, #140, #76 ) ;
#28 =( NAMED_UNIT ( * ) PLANE_ANGLE_UNIT ( ) SI_UNIT ( $, .RADIAN. ) );
#29 = PERSON_AND_ORGANIZATION_ROLE ( 'design_owner' ) ;
#30 = CIRCLE ( 'NONE', #49, 0.7499999999999975575 ) ;
#31 = ADVANCED_FACE ( 'NONE', ( #133, #163 ), #134, .T. ) ;
#32 = DATE_TIME_ROLE ( 'creation_date' ) ;
#33 = COORDINATED_UNIVERSAL_TIME_OFFSET ( 1, 0, .AHEAD. ) ;
#34 = LOCAL_TIME ( 7, 53, 51.00000000000000000, #33 ) ;
#35 = PERSON_AND_ORGANIZATION ( #88, #191 ) ;
#36 = ORIENTED_EDGE ( 'NONE', *, *, #13, .F. ) ;
#37 = CIRCLE ( 'NONE', #108, 0.4900000000000002132 ) ;
#38 = ORIENTED_EDGE ( 'NONE', *, *, #110, .T. ) ;
#39 = PRODUCT_DEFINITION_SHAPE ( 'NONE', 'NONE',  #69 ) ;
#40 = DIRECTION ( 'NONE',  ( 3.491481338843133355E-15, -1.224646799147353207E-16, 1.000000000000000000 ) ) ;
#41 = EDGE_LOOP ( 'NONE', ( #109 ) ) ;
#42 = CC_DESIGN_SECURITY_CLASSIFICATION ( #180, ( #127 ) ) ;
#43 = DIRECTION ( 'NONE',  ( -3.491481338843133355E-15, 1.224646799147353207E-16, -1.000000000000000000 ) ) ;
#44 = DIRECTION ( 'NONE',  ( 3.930469274259673845E-31, 1.000000000000000000, 1.106328747434190686E-16 ) ) ;
#45 = CARTESIAN_POINT ( 'NONE',  ( 0.0000000000000000000, 0.0000000000000000000, 0.0000000000000000000 ) ) ;
#46 =( NAMED_UNIT ( * ) SI_UNIT ( $, .STERADIAN. ) SOLID_ANGLE_UNIT ( ) );
#47 = CARTESIAN_POINT ( 'NONE',  ( 1.047444401652940007E-13, 0.6499999999999962474, 30.00000000000000000 ) ) ;
#48 = CARTESIAN_POINT ( 'NONE',  ( 1.043952920314096810E-13, 0.7499999999999963363, 29.89999999999999858 ) ) ;
#49 = AXIS2_PLACEMENT_3D ( 'NONE', #97, #214, #165 ) ;
#50 = CALENDAR_DATE ( 2021, 8, 10 ) ;
#51 = CALENDAR_DATE ( 2021, 8, 10 ) ;
#52 = APPLICATION_PROTOCOL_DEFINITION ( 'international standard', 'config_control_design', 1994, #147 ) ;
#53 = AXIS2_PLACEMENT_3D ( 'NONE', #136, #74, #96 ) ;
#54 = DIRECTION ( 'NONE',  ( -3.491481338843133355E-15, 1.224646799147353207E-16, -1.000000000000000000 ) ) ;
#55 = PLANE ( 'NONE',  #194 ) ;
#56 = EDGE_LOOP ( 'NONE', ( #22 ) ) ;
#57 = DIRECTION ( 'NONE',  ( 0.0000000000000000000, 1.000000000000000000, 0.0000000000000000000 ) ) ;
#58 = FACE_OUTER_BOUND ( 'NONE', #209, .T. ) ;
#59 = APPROVAL ( #157, 'UNSPECIFIED' ) ;
#60 =( GEOMETRIC_REPRESENTATION_CONTEXT ( 3 ) GLOBAL_UNCERTAINTY_ASSIGNED_CONTEXT ( ( #92 ) ) GLOBAL_UNIT_ASSIGNED_CONTEXT ( ( #151, #28, #46 ) ) REPRESENTATION_CONTEXT ( 'NONE', 'WORKASPACE' ) );
#61 = DIRECTION ( 'NONE',  ( -3.491481338843133355E-15, 1.224646799147353207E-16, -1.000000000000000000 ) ) ;
#62 = CARTESIAN_POINT ( 'NONE',  ( 9.877457685173117690E-16, -3.464545779834727854E-17, 0.2829016319029192816 ) ) ;
#63 = AXIS2_PLACEMENT_3D ( 'NONE', #162, #40, #2 ) ;
#64 = PERSON_AND_ORGANIZATION_ROLE ( 'creator' ) ;
#65 = DATE_AND_TIME ( #123, #169 ) ;
#66 = APPROVAL_DATE_TIME ( #125, #86 ) ;
#67 = CLOSED_SHELL ( 'NONE', ( #82, #120, #128 ) ) ;
#68 = ORIENTED_EDGE ( 'NONE', *, *, #161, .F. ) ;
#69 = PRODUCT_DEFINITION ( 'UNKNOWN', '', #127, #16 ) ;
#70 = DIRECTION ( 'NONE',  ( 3.491481338843133355E-15, -1.224646799147353207E-16, 1.000000000000000000 ) ) ;
#71 = FACE_OUTER_BOUND ( 'NONE', #177, .T. ) ;
#72 = AXIS2_PLACEMENT_3D ( 'NONE', #73, #144, #208 ) ;
#73 = CARTESIAN_POINT ( 'NONE',  ( 0.0000000000000000000, 0.0000000000000000000, 0.0000000000000000000 ) ) ;
#74 = DIRECTION ( 'NONE',  ( 0.0000000000000000000, 0.0000000000000000000, 1.000000000000000000 ) ) ;
#75 = VERTEX_POINT ( 'NONE', #121 ) ;
#76 = DIRECTION ( 'NONE',  ( 4.275831445896959482E-31, 1.000000000000000000, 1.224646799147353207E-16 ) ) ;
#77 = APPROVAL_PERSON_ORGANIZATION ( #35, #59, #171 ) ;
#78 = DIRECTION ( 'NONE',  ( 0.0000000000000000000, 1.000000000000000000, 0.0000000000000000000 ) ) ;
#79 = APPROVAL_STATUS ( 'not_yet_approved' ) ;
#80 = COORDINATED_UNIVERSAL_TIME_OFFSET ( 1, 0, .AHEAD. ) ;
#81 = AXIS2_PLACEMENT_3D ( 'NONE', #201, #119, #7 ) ;
#82 = ADVANCED_FACE ( 'NONE', ( #176 ), #25, .T. ) ;
#83 = PERSON_AND_ORGANIZATION ( #88, #191 ) ;
#84 = CYLINDRICAL_SURFACE ( 'NONE', #72, 0.4899999999999995470 ) ;
#85 = AXIS2_PLACEMENT_3D ( 'NONE', #90, #111, #195 ) ;
#86 = APPROVAL ( #79, 'UNSPECIFIED' ) ;
#87 = CIRCLE ( 'NONE', #212, 0.7500000000000000000 ) ;
#88 = PERSON ( 'UNSPECIFIED', 'UNSPECIFIED', 'UNSPECIFIED', ('UNSPECIFIED'), ('UNSPECIFIED'), ('UNSPECIFIED') ) ;
#89 = DIRECTION ( 'NONE',  ( -3.491481338843133355E-15, 1.224646799147353207E-16, -1.000000000000000000 ) ) ;
#90 = CARTESIAN_POINT ( 'NONE',  ( 3.299566204845248983E-14, -1.157332031646313506E-15, 9.450333209967910264 ) ) ;
#91 = CARTESIAN_POINT ( 'NONE',  ( 1.043952920314096810E-13, -3.661693929450586610E-15, 29.89999999999999858 ) ) ;
#92 = UNCERTAINTY_MEASURE_WITH_UNIT (LENGTH_MEASURE( 1.000000000000000082E-05 ), #151, 'distance_accuracy_value', 'NONE');
#93 = CC_DESIGN_APPROVAL ( #153, ( #69 ) ) ;
#94 = CARTESIAN_POINT ( 'NONE',  ( 3.142333204958820020E-14, -1.102182119232617714E-15, 9.000000000000000000 ) ) ;
#95 = FACE_OUTER_BOUND ( 'NONE', #164, .T. ) ;
#96 = DIRECTION ( 'NONE',  ( 1.000000000000000000, 0.0000000000000000000, 0.0000000000000000000 ) ) ;
#97 = CARTESIAN_POINT ( 'NONE',  ( 3.299566204845248983E-14, -1.157332031646313506E-15, 9.450333209967910264 ) ) ;
#98 = CIRCLE ( 'NONE', #124, 0.6500000000000000222 ) ;
#99 = CC_DESIGN_PERSON_AND_ORGANIZATION_ASSIGNMENT ( #158, #174, ( #180 ) ) ;
#100 = VERTEX_POINT ( 'NONE', #184 ) ;
#101 = PERSON_AND_ORGANIZATION ( #88, #191 ) ;
#102 = PERSON_AND_ORGANIZATION ( #88, #191 ) ;
#103 = ADVANCED_FACE ( 'NONE', ( #193 ), #55, .F. ) ;
#104 = PERSON_AND_ORGANIZATION ( #88, #191 ) ;
#105 = APPROVAL_PERSON_ORGANIZATION ( #102, #153, #172 ) ;
#106 = APPROVAL_DATE_TIME ( #12, #59 ) ;
#107 = ORIENTED_EDGE ( 'NONE', *, *, #161, .T. ) ;
#108 = AXIS2_PLACEMENT_3D ( 'NONE', #94, #43, #113 ) ;
#109 = ORIENTED_EDGE ( 'NONE', *, *, #190, .F. ) ;
#110 = EDGE_CURVE ( 'NONE', #6, #6, #37, .T. ) ;
#111 = DIRECTION ( 'NONE',  ( 3.491481338843133355E-15, -1.224646799147353207E-16, 1.000000000000000000 ) ) ;
#112 = LOCAL_TIME ( 7, 53, 51.00000000000000000, #192 ) ;
#113 = DIRECTION ( 'NONE',  ( 0.0000000000000000000, 1.000000000000000000, 0.0000000000000000000 ) ) ;
#114 = VERTEX_POINT ( 'NONE', #152 ) ;
#115 = MANIFOLD_SOLID_BREP ( 'Corps-Déplacer/Copier1[1]', #167 ) ;
#116 = VERTEX_POINT ( 'NONE', #47 ) ;
#117 = MANIFOLD_SOLID_BREP ( 'Corps-Déplacer/Copier1[2]', #67 ) ;
#118 = CIRCLE ( 'NONE', #14, 0.4899999999999988809 ) ;
#119 = DIRECTION ( 'NONE',  ( -3.491481338843133355E-15, 1.224646799147353207E-16, -1.000000000000000000 ) ) ;
#120 = ADVANCED_FACE ( 'NONE', ( #18, #71 ), #84, .T. ) ;
#121 = CARTESIAN_POINT ( 'NONE',  ( 3.299566204845248983E-14, 0.7499999999999963363, 9.450333209967910264 ) ) ;
#122 = CIRCLE ( 'NONE', #81, 0.4900000000000002132 ) ;
#123 = CALENDAR_DATE ( 2021, 8, 10 ) ;
#124 = AXIS2_PLACEMENT_3D ( 'NONE', #219, #61, #78 ) ;
#125 = DATE_AND_TIME ( #50, #112 ) ;
#126 = CC_DESIGN_PERSON_AND_ORGANIZATION_ASSIGNMENT ( #104, #64, ( #127 ) ) ;
#127 = PRODUCT_DEFINITION_FORMATION_WITH_SPECIFIED_SOURCE ( 'ANY', '', #20, .NOT_KNOWN. ) ;
#128 = ADVANCED_FACE ( 'NONE', ( #160 ), #131, .T. ) ;
#129 = EDGE_LOOP ( 'NONE', ( #68 ) ) ;
#130 = AXIS2_PLACEMENT_3D ( 'NONE', #168, #154, #137 ) ;
#131 = PLANE ( 'NONE',  #222 ) ;
#132 = ORIENTED_EDGE ( 'NONE', *, *, #203, .F. ) ;
#133 = FACE_BOUND ( 'NONE', #148, .T. ) ;
#134 = CONICAL_SURFACE ( 'NONE', #85, 0.7499999999999975575, 0.5235987755982908221 ) ;
#135 = ADVANCED_FACE ( 'NONE', ( #95, #23 ), #146, .T. ) ;
#136 = CARTESIAN_POINT ( 'NONE',  ( 0.0000000000000000000, 0.0000000000000000000, 0.0000000000000000000 ) ) ;
#137 = DIRECTION ( 'NONE',  ( -4.275831445896958607E-31, -1.000000000000000000, -1.224646799147353207E-16 ) ) ;
#138 = EDGE_CURVE ( 'NONE', #114, #114, #122, .T. ) ;
#139 = LOCAL_TIME ( 7, 53, 51.00000000000000000, #1 ) ;
#140 = DIRECTION ( 'NONE',  ( -3.491481338843133355E-15, 1.224646799147353207E-16, -1.000000000000000000 ) ) ;
#141 = PERSON_AND_ORGANIZATION_ROLE ( 'creator' ) ;
#142 = SECURITY_CLASSIFICATION_LEVEL ( 'unclassified' ) ;
#143 = PERSON_AND_ORGANIZATION_ROLE ( 'design_supplier' ) ;
#144 = DIRECTION ( 'NONE',  ( -3.491481338843133355E-15, 1.224646799147353207E-16, -1.000000000000000000 ) ) ;
#145 = DIRECTION ( 'NONE',  ( -4.275831445896958607E-31, -1.000000000000000000, -1.224646799147353207E-16 ) ) ;
#146 = CONICAL_SURFACE ( 'NONE', #196, 0.6500000000000000222, 0.7853981633974516097 ) ;
#147 = APPLICATION_CONTEXT ( 'configuration controlled 3d designs of mechanical parts and assemblies' ) ;
#148 = EDGE_LOOP ( 'NONE', ( #5 ) ) ;
#149 = EDGE_LOOP ( 'NONE', ( #199 ) ) ;
#150 = APPLICATION_PROTOCOL_DEFINITION ( 'international standard', 'config_control_design', 1994, #215 ) ;
#151 =( LENGTH_UNIT ( ) NAMED_UNIT ( * ) SI_UNIT ( .MILLI., .METRE. ) );
#152 = CARTESIAN_POINT ( 'NONE',  ( 3.142333204958820020E-14, 0.4899999999999991029, 9.000000000000000000 ) ) ;
#153 = APPROVAL ( #170, 'UNSPECIFIED' ) ;
#154 = DIRECTION ( 'NONE',  ( 3.491481338843133355E-15, -1.224646799147353207E-16, 1.000000000000000000 ) ) ;
#155 = CC_DESIGN_DATE_AND_TIME_ASSIGNMENT ( #11, #32, ( #69 ) ) ;
#156 = PERSON_AND_ORGANIZATION ( #88, #191 ) ;
#157 = APPROVAL_STATUS ( 'not_yet_approved' ) ;
#158 = PERSON_AND_ORGANIZATION ( #88, #191 ) ;
#159 = CC_DESIGN_PERSON_AND_ORGANIZATION_ASSIGNMENT ( #101, #29, ( #20 ) ) ;
#160 = FACE_OUTER_BOUND ( 'NONE', #149, .T. ) ;
#161 = EDGE_CURVE ( 'NONE', #116, #116, #98, .T. ) ;
#162 = CARTESIAN_POINT ( 'NONE',  ( 9.877457685173117690E-16, -3.464545779834727854E-17, 0.2829016319029192816 ) ) ;
#163 = FACE_OUTER_BOUND ( 'NONE', #56, .T. ) ;
#164 = EDGE_LOOP ( 'NONE', ( #36 ) ) ;
#165 = DIRECTION ( 'NONE',  ( 0.0000000000000000000, 1.000000000000000000, 0.0000000000000000000 ) ) ;
#166 = MECHANICAL_CONTEXT ( 'NONE', #215, 'mechanical' ) ;
#167 = CLOSED_SHELL ( 'NONE', ( #213, #31, #207, #135, #103 ) ) ;
#168 = CARTESIAN_POINT ( 'NONE',  ( 3.142333204958820020E-14, 3.674411467521536907E-33, 9.000000000000000000 ) ) ;
#169 = LOCAL_TIME ( 7, 53, 51.00000000000000000, #80 ) ;
#170 = APPROVAL_STATUS ( 'not_yet_approved' ) ;
#171 = APPROVAL_ROLE ( '' ) ;
#172 = APPROVAL_ROLE ( '' ) ;
#173 = CC_DESIGN_PERSON_AND_ORGANIZATION_ASSIGNMENT ( #156, #141, ( #69 ) ) ;
#174 = PERSON_AND_ORGANIZATION_ROLE ( 'classification_officer' ) ;
#175 = ORIENTED_EDGE ( 'NONE', *, *, #138, .T. ) ;
#176 = FACE_OUTER_BOUND ( 'NONE', #19, .T. ) ;
#177 = EDGE_LOOP ( 'NONE', ( #38 ) ) ;
#178 = CC_DESIGN_DATE_AND_TIME_ASSIGNMENT ( #65, #15, ( #180 ) ) ;
#179 = EDGE_LOOP ( 'NONE', ( #107 ) ) ;
#180 = SECURITY_CLASSIFICATION ( '', '', #142 ) ;
#181 = PLANE ( 'NONE',  #130 ) ;
#182 = VERTEX_POINT ( 'NONE', #48 ) ;
#183 = ADVANCED_BREP_SHAPE_REPRESENTATION ( '43498', ( #115, #117, #53 ), #60 ) ;
#184 = CARTESIAN_POINT ( 'NONE',  ( 9.877457685173119663E-16, 0.4899999999999988809, 0.2829016319029193371 ) ) ;
#185 = CYLINDRICAL_SURFACE ( 'NONE', #27, 0.7499999999999986677 ) ;
#186 = PRODUCT_RELATED_PRODUCT_CATEGORY ( 'detail', '', ( #20 ) ) ;
#187 = PERSON_AND_ORGANIZATION ( #88, #191 ) ;
#188 = CALENDAR_DATE ( 2021, 8, 10 ) ;
#189 = APPROVAL_DATE_TIME ( #205, #153 ) ;
#190 = EDGE_CURVE ( 'NONE', #100, #100, #118, .T. ) ;
#191 = ORGANIZATION ( 'UNSPECIFIED', 'UNSPECIFIED', '' ) ;
#192 = COORDINATED_UNIVERSAL_TIME_OFFSET ( 1, 0, .AHEAD. ) ;
#193 = FACE_OUTER_BOUND ( 'NONE', #129, .T. ) ;
#194 = AXIS2_PLACEMENT_3D ( 'NONE', #210, #89, #4 ) ;
#195 = DIRECTION ( 'NONE',  ( 0.0000000000000000000, -1.000000000000000000, 0.0000000000000000000 ) ) ;
#196 = AXIS2_PLACEMENT_3D ( 'NONE', #217, #9, #26 ) ;
#197 = ORIENTED_EDGE ( 'NONE', *, *, #190, .T. ) ;
#198 = EDGE_LOOP ( 'NONE', ( #211 ) ) ;
#199 = ORIENTED_EDGE ( 'NONE', *, *, #110, .F. ) ;
#200 = CC_DESIGN_APPROVAL ( #86, ( #180 ) ) ;
#201 = CARTESIAN_POINT ( 'NONE',  ( 3.142333204958820020E-14, -1.102182119232617714E-15, 9.000000000000000000 ) ) ;
#202 = FACE_OUTER_BOUND ( 'NONE', #198, .T. ) ;
#203 = EDGE_CURVE ( 'NONE', #75, #75, #30, .T. ) ;
#204 = CARTESIAN_POINT ( 'NONE',  ( 3.142333204958820020E-14, 0.4899999999999991029, 9.000000000000000000 ) ) ;
#205 = DATE_AND_TIME ( #51, #139 ) ;
#206 = CC_DESIGN_APPROVAL ( #59, ( #127 ) ) ;
#207 = ADVANCED_FACE ( 'NONE', ( #58, #202 ), #185, .T. ) ;
#208 = DIRECTION ( 'NONE',  ( 4.275831445896958607E-31, 1.000000000000000000, 1.224646799147353207E-16 ) ) ;
#209 = EDGE_LOOP ( 'NONE', ( #132 ) ) ;
#210 = CARTESIAN_POINT ( 'NONE',  ( 1.047444401652940007E-13, 4.874219293650981803E-33, 30.00000000000000000 ) ) ;
#211 = ORIENTED_EDGE ( 'NONE', *, *, #13, .T. ) ;
#212 = AXIS2_PLACEMENT_3D ( 'NONE', #91, #54, #57 ) ;
#213 = ADVANCED_FACE ( 'NONE', ( #8 ), #181, .F. ) ;
#214 = DIRECTION ( 'NONE',  ( -3.491481338843133355E-15, 1.224646799147353207E-16, -1.000000000000000000 ) ) ;
#215 = APPLICATION_CONTEXT ( 'configuration controlled 3d designs of mechanical parts and assemblies' ) ;
#216 = DIRECTION ( 'NONE',  ( -3.491481338843133355E-15, 1.224646799147353207E-16, -1.000000000000000000 ) ) ;
#217 = CARTESIAN_POINT ( 'NONE',  ( 1.047444401652940007E-13, -3.673940397442059178E-15, 30.00000000000000000 ) ) ;
#218 = LOCAL_TIME ( 7, 53, 51.00000000000000000, #17 ) ;
#219 = CARTESIAN_POINT ( 'NONE',  ( 1.047444401652940007E-13, -3.673940397442059178E-15, 30.00000000000000000 ) ) ;
#220 = SHAPE_DEFINITION_REPRESENTATION ( #39, #183 ) ;
#221 = APPROVAL_ROLE ( '' ) ;
#222 = AXIS2_PLACEMENT_3D ( 'NONE', #3, #70, #145 ) ;
#223 = CALENDAR_DATE ( 2021, 8, 10 ) ;
ENDSEC;
END-ISO-10303-21;
