ISO-10303-21;
HEADER;
FILE_DESCRIPTION (( 'STEP AP203' ),
    '1' );
FILE_NAME ('43497.step',
    '2021-09-02T13:22:54',
    ( '' ),
    ( '' ),
    'SwSTEP 2.0',
    'SolidWorks 2019',
    '' );
FILE_SCHEMA (( 'CONFIG_CONTROL_DESIGN' ));
ENDSEC;

DATA;
#1 = VERTEX_POINT ( 'NONE', #15 ) ;
#2 = AXIS2_PLACEMENT_3D ( 'NONE', #227, #57, #261 ) ;
#3 = EDGE_CURVE ( 'NONE', #18, #333, #163, .T. ) ;
#4 =( NAMED_UNIT ( * ) PLANE_ANGLE_UNIT ( ) SI_UNIT ( $, .RADIAN. ) );
#5 = ORIENTED_EDGE ( 'NONE', *, *, #61, .T. ) ;
#6 = CC_DESIGN_PERSON_AND_ORGANIZATION_ASSIGNMENT ( #264, #153, ( #164 ) ) ;
#7 = DIRECTION ( 'NONE',  ( -3.491481338843133355E-15, 1.224646799147353207E-16, -1.000000000000000000 ) ) ;
#8 = COORDINATED_UNIVERSAL_TIME_OFFSET ( 1, 0, .AHEAD. ) ;
#9 = FACE_OUTER_BOUND ( 'NONE', #174, .T. ) ;
#10 = CYLINDRICAL_SURFACE ( 'NONE', #156, 1.999999999999991340 ) ;
#11 = SHAPE_DEFINITION_REPRESENTATION ( #141, #228 ) ;
#12 = AXIS2_PLACEMENT_3D ( 'NONE', #326, #336, #245 ) ;
#13 = DIRECTION ( 'NONE',  ( -3.491481338843133355E-15, 1.224646799147353207E-16, -1.000000000000000000 ) ) ;
#14 = DIRECTION ( 'NONE',  ( -3.491481338843133355E-15, 1.224646799147353207E-16, -1.000000000000000000 ) ) ;
#15 = CARTESIAN_POINT ( 'NONE',  ( 1.501336975702547217E-13, 1.999999999999988676, 43.00000000000000000 ) ) ;
#16 = CC_DESIGN_SECURITY_CLASSIFICATION ( #108, ( #323 ) ) ;
#17 = EDGE_CURVE ( 'NONE', #1, #18, #144, .T. ) ;
#18 = VERTEX_POINT ( 'NONE', #273 ) ;
#19 = CC_DESIGN_PERSON_AND_ORGANIZATION_ASSIGNMENT ( #298, #308, ( #108 ) ) ;
#20 = VECTOR ( 'NONE', #137, 1000.000000000000000 ) ;
#21 = ORIENTED_EDGE ( 'NONE', *, *, #83, .T. ) ;
#22 = CALENDAR_DATE ( 2021, 2, 9 ) ;
#23 = VERTEX_POINT ( 'NONE', #45 ) ;
#24 =( NAMED_UNIT ( * ) SI_UNIT ( $, .STERADIAN. ) SOLID_ANGLE_UNIT ( ) );
#25 = CARTESIAN_POINT ( 'NONE',  ( 4.195787277160944018E-15, -1.999999999999988676, 1.201721238055127428 ) ) ;
#26 = CC_DESIGN_DATE_AND_TIME_ASSIGNMENT ( #64, #46, ( #108 ) ) ;
#27 = ORIENTED_EDGE ( 'NONE', *, *, #134, .T. ) ;
#28 = DIRECTION ( 'NONE',  ( 1.903218546456023111E-15, 0.8571673007021096691, 0.5150380749100587074 ) ) ;
#29 = DIRECTION ( 'NONE',  ( -3.491481338843133355E-15, 1.224646799147353207E-16, -1.000000000000000000 ) ) ;
#30 = AXIS2_PLACEMENT_3D ( 'NONE', #234, #107, #202 ) ;
#31 = CARTESIAN_POINT ( 'NONE',  ( 8.551662891793899697E-31, 1.999999999999995781, 2.449293598294700991E-16 ) ) ;
#32 = CARTESIAN_POINT ( 'NONE',  ( 1.501336975702547217E-13, 1.499759782661845018E-32, 43.00000000000000000 ) ) ;
#33 = CARTESIAN_POINT ( 'NONE',  ( 2.612025432683749890E-13, -1.500000000000006883, 75.00000000000000000 ) ) ;
#34 = CIRCLE ( 'NONE', #94, 1.999999999999994005 ) ;
#35 = DATE_AND_TIME ( #243, #312 ) ;
#36 = APPROVAL_PERSON_ORGANIZATION ( #166, #93, #138 ) ;
#37 = CARTESIAN_POINT ( 'NONE',  ( 1.501336975702547217E-13, -5.265981236333618470E-15, 43.00000000000000000 ) ) ;
#38 = EDGE_CURVE ( 'NONE', #1, #223, #158, .T. ) ;
#39 = CARTESIAN_POINT ( 'NONE',  ( 2.618611004132350143E-13, -9.184850993605148733E-15, 75.00000000000000000 ) ) ;
#40 = ORIENTED_EDGE ( 'NONE', *, *, #151, .F. ) ;
#41 = AXIS2_PLACEMENT_3D ( 'NONE', #32, #79, #149 ) ;
#42 = LOCAL_TIME ( 15, 22, 54.00000000000000000, #276 ) ;
#43 = EDGE_CURVE ( 'NONE', #219, #97, #34, .T. ) ;
#44 = APPROVAL_STATUS ( 'not_yet_approved' ) ;
#45 = CARTESIAN_POINT ( 'NONE',  ( 2.601153597438134539E-13, 1.999999999999988676, 74.50000000000001421 ) ) ;
#46 = DATE_TIME_ROLE ( 'classification_date' ) ;
#47 = ORIENTED_EDGE ( 'NONE', *, *, #238, .T. ) ;
#48 = DIRECTION ( 'NONE',  ( 0.0000000000000000000, 0.0000000000000000000, 1.000000000000000000 ) ) ;
#49 = ORIENTED_EDGE ( 'NONE', *, *, #200, .F. ) ;
#50 = EDGE_LOOP ( 'NONE', ( #170, #198, #271 ) ) ;
#51 = CONICAL_SURFACE ( 'NONE', #81, 1.499999999999997780, 0.7853981633974617127 ) ;
#52 = DIRECTION ( 'NONE',  ( -3.491481338843133355E-15, 1.224646799147353207E-16, -1.000000000000000000 ) ) ;
#53 = CARTESIAN_POINT ( 'NONE',  ( 2.601153597438134539E-13, -9.123618653647782737E-15, 74.50000000000001421 ) ) ;
#54 = LINE ( 'NONE', #255, #222 ) ;
#55 = DATE_AND_TIME ( #180, #183 ) ;
#56 = PERSON_AND_ORGANIZATION_ROLE ( 'creator' ) ;
#57 = DIRECTION ( 'NONE',  ( -3.491481338843133355E-15, 1.224646799147353207E-16, -1.000000000000000000 ) ) ;
#58 = CARTESIAN_POINT ( 'NONE',  ( 2.618611004132350143E-13, 1.499999999999988676, 75.00000000000000000 ) ) ;
#59 = CONICAL_SURFACE ( 'NONE', #99, 1.999999999999988676, 1.029744258676649427 ) ;
#60 = FACE_OUTER_BOUND ( 'NONE', #120, .T. ) ;
#61 = EDGE_CURVE ( 'NONE', #309, #23, #330, .T. ) ;
#62 = DIRECTION ( 'NONE',  ( 1.000000000000000000, 0.0000000000000000000, 0.0000000000000000000 ) ) ;
#63 = CIRCLE ( 'NONE', #113, 1.999999999999994005 ) ;
#64 = DATE_AND_TIME ( #22, #42 ) ;
#65 = CALENDAR_DATE ( 2021, 2, 9 ) ;
#66 = APPLICATION_PROTOCOL_DEFINITION ( 'international standard', 'config_control_design', 1994, #210 ) ;
#67 = ORIENTED_EDGE ( 'NONE', *, *, #83, .F. ) ;
#68 = APPROVAL ( #320, 'UNSPECIFIED' ) ;
#69 = CARTESIAN_POINT ( 'NONE',  ( 0.0000000000000000000, 0.0000000000000000000, 0.0000000000000000000 ) ) ;
#70 = EDGE_CURVE ( 'NONE', #165, #23, #150, .T. ) ;
#71 = CC_DESIGN_PERSON_AND_ORGANIZATION_ASSIGNMENT ( #112, #215, ( #323 ) ) ;
#72 = AXIS2_PLACEMENT_3D ( 'NONE', #235, #154, #123 ) ;
#73 = EDGE_LOOP ( 'NONE', ( #139, #199, #286, #143 ) ) ;
#74 = CC_DESIGN_APPROVAL ( #93, ( #108 ) ) ;
#75 = CARTESIAN_POINT ( 'NONE',  ( 2.053694580168635455E-13, -1.999999999999999112, 43.00000000000000000 ) ) ;
#76 = DIRECTION ( 'NONE',  ( 4.275831445896958607E-31, 1.000000000000000000, 1.224646799147353207E-16 ) ) ;
#77 = DIRECTION ( 'NONE',  ( 4.275831445896958607E-31, 1.000000000000000000, 1.224646799147353207E-16 ) ) ;
#78 = ADVANCED_FACE ( 'NONE', ( #201 ), #316, .T. ) ;
#79 = DIRECTION ( 'NONE',  ( 3.491481338843133355E-15, -1.224646799147353207E-16, 1.000000000000000000 ) ) ;
#80 = DIRECTION ( 'NONE',  ( 0.0000000000000000000, 1.000000000000000000, 0.0000000000000000000 ) ) ;
#81 = AXIS2_PLACEMENT_3D ( 'NONE', #39, #89, #135 ) ;
#82 = FACE_OUTER_BOUND ( 'NONE', #196, .T. ) ;
#83 = EDGE_CURVE ( 'NONE', #23, #165, #182, .T. ) ;
#84 = PLANE ( 'NONE',  #175 ) ;
#85 = CONICAL_SURFACE ( 'NONE', #282, 1.499999999999997780, 0.7853981633974617127 ) ;
#86 = SECURITY_CLASSIFICATION_LEVEL ( 'unclassified' ) ;
#87 = MANIFOLD_SOLID_BREP ( 'Corps-Déplacer/Copier1[2]', #283 ) ;
#88 = DIRECTION ( 'NONE',  ( -3.851859888774493601E-31, -1.000000000000000000, -1.084202172485510597E-16 ) ) ;
#89 = DIRECTION ( 'NONE',  ( -3.491481338843133355E-15, 1.224646799147353207E-16, -1.000000000000000000 ) ) ;
#90 = DIRECTION ( 'NONE',  ( -3.491481338843133355E-15, 1.224646799147353207E-16, -1.000000000000000000 ) ) ;
#91 = CIRCLE ( 'NONE', #130, 1.499999999999997780 ) ;
#92 = CC_DESIGN_PERSON_AND_ORGANIZATION_ASSIGNMENT ( #206, #56, ( #274 ) ) ;
#93 = APPROVAL ( #44, 'UNSPECIFIED' ) ;
#94 = AXIS2_PLACEMENT_3D ( 'NONE', #133, #14, #111 ) ;
#95 = EDGE_LOOP ( 'NONE', ( #246, #114, #119, #140 ) ) ;
#96 = ADVANCED_FACE ( 'NONE', ( #82 ), #258, .F. ) ;
#97 = VERTEX_POINT ( 'NONE', #253 ) ;
#98 = LINE ( 'NONE', #106, #304 ) ;
#99 = AXIS2_PLACEMENT_3D ( 'NONE', #254, #181, #288 ) ;
#100 = ORGANIZATION ( 'UNSPECIFIED', 'UNSPECIFIED', '' ) ;
#101 = DIRECTION ( 'NONE',  ( -3.491481338843133355E-15, 1.224646799147353207E-16, -1.000000000000000000 ) ) ;
#102 = CARTESIAN_POINT ( 'NONE',  ( 4.440716636990415103E-15, 1.999999999999988676, 1.201721238055127872 ) ) ;
#103 = ADVANCED_FACE ( 'NONE', ( #9 ), #85, .T. ) ;
#104 = CARTESIAN_POINT ( 'NONE',  ( 4.440716636990415103E-15, 1.999999999999988676, 1.201721238055127872 ) ) ;
#105 = APPROVAL_STATUS ( 'not_yet_approved' ) ;
#106 = CARTESIAN_POINT ( 'NONE',  ( 2.449293598294692609E-16, -1.999999999999995781, -2.449293598294709866E-16 ) ) ;
#107 = DIRECTION ( 'NONE',  ( -3.491481338843133355E-15, 1.224646799147353207E-16, -1.000000000000000000 ) ) ;
#108 = SECURITY_CLASSIFICATION ( '', '', #86 ) ;
#109 = EDGE_CURVE ( 'NONE', #223, #333, #296, .T. ) ;
#110 = APPROVAL_DATE_TIME ( #35, #68 ) ;
#111 = DIRECTION ( 'NONE',  ( 0.0000000000000000000, 1.000000000000000000, 0.0000000000000000000 ) ) ;
#112 = PERSON_AND_ORGANIZATION ( #173, #100 ) ;
#113 = AXIS2_PLACEMENT_3D ( 'NONE', #321, #292, #80 ) ;
#114 = ORIENTED_EDGE ( 'NONE', *, *, #3, .T. ) ;
#115 = CIRCLE ( 'NONE', #247, 1.999999999999994005 ) ;
#116 = AXIS2_PLACEMENT_3D ( 'NONE', #69, #48, #62 ) ;
#117 = FACE_OUTER_BOUND ( 'NONE', #300, .T. ) ;
#118 = ORIENTED_EDGE ( 'NONE', *, *, #17, .F. ) ;
#119 = ORIENTED_EDGE ( 'NONE', *, *, #109, .F. ) ;
#120 = EDGE_LOOP ( 'NONE', ( #118, #145 ) ) ;
#121 = CYLINDRICAL_SURFACE ( 'NONE', #167, 1.999999999999991340 ) ;
#122 = EDGE_CURVE ( 'NONE', #97, #219, #115, .T. ) ;
#123 = DIRECTION ( 'NONE',  ( 0.0000000000000000000, 1.000000000000000000, 0.0000000000000000000 ) ) ;
#124 = AXIS2_PLACEMENT_3D ( 'NONE', #319, #52, #146 ) ;
#125 = CYLINDRICAL_SURFACE ( 'NONE', #30, 1.999999999999995781 ) ;
#126 = DIRECTION ( 'NONE',  ( 1.798245827342160711E-15, -0.8571673007021097801, 0.5150380749100583744 ) ) ;
#127 = CARTESIAN_POINT ( 'NONE',  ( 4.195787277160944807E-15, -1.471684067651606583E-16, 1.201721238055127650 ) ) ;
#128 = DATE_AND_TIME ( #306, #176 ) ;
#129 = CLOSED_SHELL ( 'NONE', ( #171, #241, #96, #78, #103, #280 ) ) ;
#130 = AXIS2_PLACEMENT_3D ( 'NONE', #294, #152, #325 ) ;
#131 = APPROVAL_PERSON_ORGANIZATION ( #287, #68, #190 ) ;
#132 = CARTESIAN_POINT ( 'NONE',  ( 8.551662891793880429E-31, 1.999999999999991340, 2.449293598294695568E-16 ) ) ;
#133 = CARTESIAN_POINT ( 'NONE',  ( 1.501336975702547217E-13, -5.265981236333618470E-15, 43.00000000000000000 ) ) ;
#134 = EDGE_CURVE ( 'NONE', #23, #97, #284, .T. ) ;
#135 = DIRECTION ( 'NONE',  ( 0.0000000000000000000, 1.000000000000000000, 0.0000000000000000000 ) ) ;
#136 = ORIENTED_EDGE ( 'NONE', *, *, #134, .F. ) ;
#137 = DIRECTION ( 'NONE',  ( -3.491481338843133355E-15, 1.224646799147353207E-16, -1.000000000000000000 ) ) ;
#138 = APPROVAL_ROLE ( '' ) ;
#139 = ORIENTED_EDGE ( 'NONE', *, *, #3, .F. ) ;
#140 = ORIENTED_EDGE ( 'NONE', *, *, #38, .F. ) ;
#141 = PRODUCT_DEFINITION_SHAPE ( 'NONE', 'NONE',  #274 ) ;
#142 = EDGE_LOOP ( 'NONE', ( #21, #310, #251, #136 ) ) ;
#143 = ORIENTED_EDGE ( 'NONE', *, *, #189, .F. ) ;
#144 = CIRCLE ( 'NONE', #212, 1.999999999999994005 ) ;
#145 = ORIENTED_EDGE ( 'NONE', *, *, #197, .F. ) ;
#146 = DIRECTION ( 'NONE',  ( 3.851859888774493601E-31, 1.000000000000000000, 1.084202172485510597E-16 ) ) ;
#147 = DIRECTION ( 'NONE',  ( 3.851859888774493601E-31, 1.000000000000000000, 1.084202172485510597E-16 ) ) ;
#148 = EDGE_CURVE ( 'NONE', #192, #333, #54, .T. ) ;
#149 = DIRECTION ( 'NONE',  ( -4.275831445896958607E-31, -1.000000000000000000, -1.224646799147353207E-16 ) ) ;
#150 = CIRCLE ( 'NONE', #72, 1.999999999999997780 ) ;
#151 = EDGE_CURVE ( 'NONE', #305, #165, #157, .T. ) ;
#152 = DIRECTION ( 'NONE',  ( -3.491481338843133355E-15, 1.224646799147353207E-16, -1.000000000000000000 ) ) ;
#153 = PERSON_AND_ORGANIZATION_ROLE ( 'design_owner' ) ;
#154 = DIRECTION ( 'NONE',  ( -3.491481338843133355E-15, 1.224646799147353207E-16, -1.000000000000000000 ) ) ;
#155 = FACE_OUTER_BOUND ( 'NONE', #277, .T. ) ;
#156 = AXIS2_PLACEMENT_3D ( 'NONE', #295, #7, #77 ) ;
#157 = LINE ( 'NONE', #159, #335 ) ;
#158 = LINE ( 'NONE', #132, #20 ) ;
#159 = CARTESIAN_POINT ( 'NONE',  ( 2.620447974331071044E-13, -1.500000000000006883, 75.00000000000000000 ) ) ;
#160 = PLANE ( 'NONE',  #188 ) ;
#161 = ORIENTED_EDGE ( 'NONE', *, *, #61, .F. ) ;
#162 = VECTOR ( 'NONE', #101, 1000.000000000000000 ) ;
#163 = LINE ( 'NONE', #266, #322 ) ;
#164 = PRODUCT ( '43497', '43497', '', ( #327 ) ) ;
#165 = VERTEX_POINT ( 'NONE', #239 ) ;
#166 = PERSON_AND_ORGANIZATION ( #173, #100 ) ;
#167 = AXIS2_PLACEMENT_3D ( 'NONE', #187, #225, #317 ) ;
#168 = COORDINATED_UNIVERSAL_TIME_OFFSET ( 1, 0, .AHEAD. ) ;
#169 =( GEOMETRIC_REPRESENTATION_CONTEXT ( 3 ) GLOBAL_UNCERTAINTY_ASSIGNED_CONTEXT ( ( #290 ) ) GLOBAL_UNIT_ASSIGNED_CONTEXT ( ( #269, #4, #24 ) ) REPRESENTATION_CONTEXT ( 'NONE', 'WORKASPACE' ) );
#170 = ORIENTED_EDGE ( 'NONE', *, *, #238, .F. ) ;
#171 = ADVANCED_FACE ( 'NONE', ( #267 ), #51, .T. ) ;
#172 = EDGE_LOOP ( 'NONE', ( #278, #314, #67, #161 ) ) ;
#173 = PERSON ( 'UNSPECIFIED', 'UNSPECIFIED', 'UNSPECIFIED', ('UNSPECIFIED'), ('UNSPECIFIED'), ('UNSPECIFIED') ) ;
#174 = EDGE_LOOP ( 'NONE', ( #40, #248, #5, #281 ) ) ;
#175 = AXIS2_PLACEMENT_3D ( 'NONE', #259, #297, #76 ) ;
#176 = LOCAL_TIME ( 15, 22, 54.00000000000000000, #334 ) ;
#177 = EDGE_CURVE ( 'NONE', #309, #305, #91, .T. ) ;
#178 = ORIENTED_EDGE ( 'NONE', *, *, #43, .T. ) ;
#179 = FACE_OUTER_BOUND ( 'NONE', #50, .T. ) ;
#180 = CALENDAR_DATE ( 2021, 2, 9 ) ;
#181 = DIRECTION ( 'NONE',  ( 3.491481338843133355E-15, -1.224646799147353207E-16, 1.000000000000000000 ) ) ;
#182 = CIRCLE ( 'NONE', #265, 1.999999999999997780 ) ;
#183 = LOCAL_TIME ( 15, 22, 54.00000000000000000, #8 ) ;
#184 = FACE_OUTER_BOUND ( 'NONE', #142, .T. ) ;
#185 = PERSON_AND_ORGANIZATION ( #173, #100 ) ;
#186 = APPROVAL_ROLE ( '' ) ;
#187 = CARTESIAN_POINT ( 'NONE',  ( 0.0000000000000000000, 0.0000000000000000000, 0.0000000000000000000 ) ) ;
#188 = AXIS2_PLACEMENT_3D ( 'NONE', #268, #244, #272 ) ;
#189 = EDGE_CURVE ( 'NONE', #333, #223, #217, .T. ) ;
#190 = APPROVAL_ROLE ( '' ) ;
#191 = CIRCLE ( 'NONE', #12, 1.499999999999997780 ) ;
#192 = VERTEX_POINT ( 'NONE', #208 ) ;
#193 = DIRECTION ( 'NONE',  ( 0.0000000000000000000, 1.000000000000000000, 0.0000000000000000000 ) ) ;
#194 = ORIENTED_EDGE ( 'NONE', *, *, #177, .F. ) ;
#195 = ORIENTED_EDGE ( 'NONE', *, *, #262, .F. ) ;
#196 = EDGE_LOOP ( 'NONE', ( #275, #178 ) ) ;
#197 = EDGE_CURVE ( 'NONE', #18, #1, #63, .T. ) ;
#198 = ORIENTED_EDGE ( 'NONE', *, *, #148, .T. ) ;
#199 = ORIENTED_EDGE ( 'NONE', *, *, #197, .T. ) ;
#200 = EDGE_CURVE ( 'NONE', #165, #219, #98, .T. ) ;
#201 = FACE_OUTER_BOUND ( 'NONE', #252, .T. ) ;
#202 = DIRECTION ( 'NONE',  ( 4.275831445896958607E-31, 1.000000000000000000, 1.224646799147352961E-16 ) ) ;
#203 = CC_DESIGN_APPROVAL ( #68, ( #323 ) ) ;
#204 = CARTESIAN_POINT ( 'NONE',  ( 2.618611004132350143E-13, -9.184850993605148733E-15, 75.00000000000000000 ) ) ;
#205 = LINE ( 'NONE', #104, #279 ) ;
#206 = PERSON_AND_ORGANIZATION ( #173, #100 ) ;
#207 = CARTESIAN_POINT ( 'NONE',  ( 1.501336975702547217E-13, -5.265981236333618470E-15, 43.00000000000000000 ) ) ;
#208 = CARTESIAN_POINT ( 'NONE',  ( 0.0000000000000000000, 0.0000000000000000000, 0.0000000000000000000 ) ) ;
#209 = ADVANCED_FACE ( 'NONE', ( #211 ), #10, .T. ) ;
#210 = APPLICATION_CONTEXT ( 'configuration controlled 3d designs of mechanical parts and assemblies' ) ;
#211 = FACE_OUTER_BOUND ( 'NONE', #95, .T. ) ;
#212 = AXIS2_PLACEMENT_3D ( 'NONE', #37, #303, #193 ) ;
#213 = PERSON_AND_ORGANIZATION ( #173, #100 ) ;
#214 = APPROVAL ( #105, 'UNSPECIFIED' ) ;
#215 = PERSON_AND_ORGANIZATION_ROLE ( 'design_supplier' ) ;
#216 = DIRECTION ( 'NONE',  ( 3.491481338843133355E-15, -1.224646799147353207E-16, 1.000000000000000000 ) ) ;
#217 = CIRCLE ( 'NONE', #331, 1.999999999999988676 ) ;
#218 = ADVANCED_FACE ( 'NONE', ( #236 ), #121, .T. ) ;
#219 = VERTEX_POINT ( 'NONE', #75 ) ;
#220 = ADVANCED_FACE ( 'NONE', ( #179 ), #59, .T. ) ;
#221 = ORIENTED_EDGE ( 'NONE', *, *, #148, .F. ) ;
#222 = VECTOR ( 'NONE', #126, 1000.000000000000000 ) ;
#223 = VERTEX_POINT ( 'NONE', #102 ) ;
#224 = DATE_TIME_ROLE ( 'creation_date' ) ;
#225 = DIRECTION ( 'NONE',  ( -3.491481338843133355E-15, 1.224646799147353207E-16, -1.000000000000000000 ) ) ;
#226 = CONICAL_SURFACE ( 'NONE', #311, 1.999999999999988676, 1.029744258676649427 ) ;
#227 = CARTESIAN_POINT ( 'NONE',  ( 0.0000000000000000000, 0.0000000000000000000, 0.0000000000000000000 ) ) ;
#228 = ADVANCED_BREP_SHAPE_REPRESENTATION ( '43497', ( #249, #87, #116 ), #169 ) ;
#229 = APPROVAL_DATE_TIME ( #55, #214 ) ;
#230 = DIRECTION ( 'NONE',  ( -3.491481338843133355E-15, 1.224646799147353207E-16, -1.000000000000000000 ) ) ;
#231 = DESIGN_CONTEXT ( 'detailed design', #237, 'design' ) ;
#232 = DIRECTION ( 'NONE',  ( 0.0000000000000000000, 1.000000000000000000, 0.0000000000000000000 ) ) ;
#233 = DIRECTION ( 'NONE',  ( -3.491481338843133355E-15, 1.224646799147353207E-16, -1.000000000000000000 ) ) ;
#234 = CARTESIAN_POINT ( 'NONE',  ( 0.0000000000000000000, 0.0000000000000000000, 0.0000000000000000000 ) ) ;
#235 = CARTESIAN_POINT ( 'NONE',  ( 2.601153597438134539E-13, -9.123618653647782737E-15, 74.50000000000001421 ) ) ;
#236 = FACE_OUTER_BOUND ( 'NONE', #73, .T. ) ;
#237 = APPLICATION_CONTEXT ( 'configuration controlled 3d designs of mechanical parts and assemblies' ) ;
#238 = EDGE_CURVE ( 'NONE', #192, #223, #205, .T. ) ;
#239 = CARTESIAN_POINT ( 'NONE',  ( 2.053694580168634445E-13, -2.000000000000007105, 74.50000000000001421 ) ) ;
#240 = CARTESIAN_POINT ( 'NONE',  ( 4.195787277160944807E-15, -1.471684067651606583E-16, 1.201721238055127650 ) ) ;
#241 = ADVANCED_FACE ( 'NONE', ( #184 ), #125, .T. ) ;
#242 = VECTOR ( 'NONE', #256, 1000.000000000000000 ) ;
#243 = CALENDAR_DATE ( 2021, 2, 9 ) ;
#244 = DIRECTION ( 'NONE',  ( 3.491481338843133355E-15, -1.224646799147353207E-16, 1.000000000000000000 ) ) ;
#245 = DIRECTION ( 'NONE',  ( 0.0000000000000000000, 1.000000000000000000, 0.0000000000000000000 ) ) ;
#246 = ORIENTED_EDGE ( 'NONE', *, *, #17, .T. ) ;
#247 = AXIS2_PLACEMENT_3D ( 'NONE', #207, #230, #232 ) ;
#248 = ORIENTED_EDGE ( 'NONE', *, *, #262, .T. ) ;
#249 = MANIFOLD_SOLID_BREP ( 'Corps-Déplacer/Copier1[1]', #129 ) ;
#250 = ORIENTED_EDGE ( 'NONE', *, *, #109, .T. ) ;
#251 = ORIENTED_EDGE ( 'NONE', *, *, #122, .F. ) ;
#252 = EDGE_LOOP ( 'NONE', ( #49, #270, #27, #313 ) ) ;
#253 = CARTESIAN_POINT ( 'NONE',  ( 1.501336975702547217E-13, 1.999999999999988676, 43.00000000000000000 ) ) ;
#254 = CARTESIAN_POINT ( 'NONE',  ( 4.195787277160944807E-15, -1.471684067651606583E-16, 1.201721238055127650 ) ) ;
#255 = CARTESIAN_POINT ( 'NONE',  ( 4.195787277160944018E-15, -1.999999999999988676, 1.201721238055127428 ) ) ;
#256 = DIRECTION ( 'NONE',  ( -2.468850131082231817E-15, 0.7071067811865571207, -0.7071067811865379138 ) ) ;
#257 = APPROVAL_PERSON_ORGANIZATION ( #185, #214, #186 ) ;
#258 = PLANE ( 'NONE',  #41 ) ;
#259 = CARTESIAN_POINT ( 'NONE',  ( 2.618611004132350143E-13, 1.124819836996378016E-32, 75.00000000000000000 ) ) ;
#260 = DIRECTION ( 'NONE',  ( -3.491481338843133355E-15, 1.224646799147353207E-16, -1.000000000000000000 ) ) ;
#261 = DIRECTION ( 'NONE',  ( 4.275831445896958607E-31, 1.000000000000000000, 1.224646799147352961E-16 ) ) ;
#262 = EDGE_CURVE ( 'NONE', #305, #309, #191, .T. ) ;
#263 = DATE_AND_TIME ( #65, #337 ) ;
#264 = PERSON_AND_ORGANIZATION ( #173, #100 ) ;
#265 = AXIS2_PLACEMENT_3D ( 'NONE', #53, #13, #315 ) ;
#266 = CARTESIAN_POINT ( 'NONE',  ( 2.449293598294687679E-16, -1.999999999999991340, -2.449293598294704442E-16 ) ) ;
#267 = FACE_OUTER_BOUND ( 'NONE', #172, .T. ) ;
#268 = CARTESIAN_POINT ( 'NONE',  ( 1.501336975702547217E-13, 1.499759782661845018E-32, 43.00000000000000000 ) ) ;
#269 =( LENGTH_UNIT ( ) NAMED_UNIT ( * ) SI_UNIT ( .MILLI., .METRE. ) );
#270 = ORIENTED_EDGE ( 'NONE', *, *, #70, .T. ) ;
#271 = ORIENTED_EDGE ( 'NONE', *, *, #189, .T. ) ;
#272 = DIRECTION ( 'NONE',  ( -4.275831445896958607E-31, -1.000000000000000000, -1.224646799147353207E-16 ) ) ;
#273 = CARTESIAN_POINT ( 'NONE',  ( 7.740967178353710158E-14, -1.999999999999999112, 43.00000000000000000 ) ) ;
#274 = PRODUCT_DEFINITION ( 'UNKNOWN', '', #323, #231 ) ;
#275 = ORIENTED_EDGE ( 'NONE', *, *, #122, .T. ) ;
#276 = COORDINATED_UNIVERSAL_TIME_OFFSET ( 1, 0, .AHEAD. ) ;
#277 = EDGE_LOOP ( 'NONE', ( #221, #47, #250 ) ) ;
#278 = ORIENTED_EDGE ( 'NONE', *, *, #177, .T. ) ;
#279 = VECTOR ( 'NONE', #28, 1000.000000000000114 ) ;
#280 = ADVANCED_FACE ( 'NONE', ( #117 ), #84, .F. ) ;
#281 = ORIENTED_EDGE ( 'NONE', *, *, #70, .F. ) ;
#282 = AXIS2_PLACEMENT_3D ( 'NONE', #204, #29, #285 ) ;
#283 = CLOSED_SHELL ( 'NONE', ( #209, #307, #220, #218, #332 ) ) ;
#284 = LINE ( 'NONE', #31, #162 ) ;
#285 = DIRECTION ( 'NONE',  ( 0.0000000000000000000, 1.000000000000000000, 0.0000000000000000000 ) ) ;
#286 = ORIENTED_EDGE ( 'NONE', *, *, #38, .T. ) ;
#287 = PERSON_AND_ORGANIZATION ( #173, #100 ) ;
#288 = DIRECTION ( 'NONE',  ( -3.851859888774493601E-31, -1.000000000000000000, -1.084202172485510597E-16 ) ) ;
#289 = CC_DESIGN_PERSON_AND_ORGANIZATION_ASSIGNMENT ( #213, #329, ( #323 ) ) ;
#290 = UNCERTAINTY_MEASURE_WITH_UNIT (LENGTH_MEASURE( 1.000000000000000082E-05 ), #269, 'distance_accuracy_value', 'NONE');
#291 = CC_DESIGN_APPROVAL ( #214, ( #274 ) ) ;
#292 = DIRECTION ( 'NONE',  ( -3.491481338843133355E-15, 1.224646799147353207E-16, -1.000000000000000000 ) ) ;
#293 = APPROVAL_DATE_TIME ( #128, #93 ) ;
#294 = CARTESIAN_POINT ( 'NONE',  ( 2.618611004132350143E-13, -9.184850993605148733E-15, 75.00000000000000000 ) ) ;
#295 = CARTESIAN_POINT ( 'NONE',  ( 0.0000000000000000000, 0.0000000000000000000, 0.0000000000000000000 ) ) ;
#296 = CIRCLE ( 'NONE', #124, 1.999999999999988676 ) ;
#297 = DIRECTION ( 'NONE',  ( -3.491481338843133355E-15, 1.224646799147353207E-16, -1.000000000000000000 ) ) ;
#298 = PERSON_AND_ORGANIZATION ( #173, #100 ) ;
#299 = CARTESIAN_POINT ( 'NONE',  ( 2.618611004132350143E-13, 1.499999999999988676, 75.00000000000000000 ) ) ;
#300 = EDGE_LOOP ( 'NONE', ( #194, #195 ) ) ;
#301 = COORDINATED_UNIVERSAL_TIME_OFFSET ( 1, 0, .AHEAD. ) ;
#302 = PRODUCT_RELATED_PRODUCT_CATEGORY ( 'detail', '', ( #164 ) ) ;
#303 = DIRECTION ( 'NONE',  ( -3.491481338843133355E-15, 1.224646799147353207E-16, -1.000000000000000000 ) ) ;
#304 = VECTOR ( 'NONE', #260, 1000.000000000000000 ) ;
#305 = VERTEX_POINT ( 'NONE', #33 ) ;
#306 = CALENDAR_DATE ( 2021, 2, 9 ) ;
#307 = ADVANCED_FACE ( 'NONE', ( #155 ), #226, .T. ) ;
#308 = PERSON_AND_ORGANIZATION_ROLE ( 'classification_officer' ) ;
#309 = VERTEX_POINT ( 'NONE', #299 ) ;
#310 = ORIENTED_EDGE ( 'NONE', *, *, #200, .T. ) ;
#311 = AXIS2_PLACEMENT_3D ( 'NONE', #240, #216, #88 ) ;
#312 = LOCAL_TIME ( 15, 22, 54.00000000000000000, #301 ) ;
#313 = ORIENTED_EDGE ( 'NONE', *, *, #43, .F. ) ;
#314 = ORIENTED_EDGE ( 'NONE', *, *, #151, .T. ) ;
#315 = DIRECTION ( 'NONE',  ( 0.0000000000000000000, 1.000000000000000000, 0.0000000000000000000 ) ) ;
#316 = CYLINDRICAL_SURFACE ( 'NONE', #2, 1.999999999999995781 ) ;
#317 = DIRECTION ( 'NONE',  ( 4.275831445896958607E-31, 1.000000000000000000, 1.224646799147353207E-16 ) ) ;
#318 = CC_DESIGN_DATE_AND_TIME_ASSIGNMENT ( #263, #224, ( #274 ) ) ;
#319 = CARTESIAN_POINT ( 'NONE',  ( 4.195787277160944807E-15, -1.471684067651606583E-16, 1.201721238055127650 ) ) ;
#320 = APPROVAL_STATUS ( 'not_yet_approved' ) ;
#321 = CARTESIAN_POINT ( 'NONE',  ( 1.501336975702547217E-13, -5.265981236333618470E-15, 43.00000000000000000 ) ) ;
#322 = VECTOR ( 'NONE', #90, 1000.000000000000000 ) ;
#323 = PRODUCT_DEFINITION_FORMATION_WITH_SPECIFIED_SOURCE ( 'ANY', '', #164, .NOT_KNOWN. ) ;
#324 = APPLICATION_PROTOCOL_DEFINITION ( 'international standard', 'config_control_design', 1994, #237 ) ;
#325 = DIRECTION ( 'NONE',  ( 0.0000000000000000000, 1.000000000000000000, 0.0000000000000000000 ) ) ;
#326 = CARTESIAN_POINT ( 'NONE',  ( 2.618611004132350143E-13, -9.184850993605148733E-15, 75.00000000000000000 ) ) ;
#327 = MECHANICAL_CONTEXT ( 'NONE', #210, 'mechanical' ) ;
#328 = DIRECTION ( 'NONE',  ( -2.382254525458681971E-15, -0.7071067811865568986, -0.7071067811865382469 ) ) ;
#329 = PERSON_AND_ORGANIZATION_ROLE ( 'creator' ) ;
#330 = LINE ( 'NONE', #58, #242 ) ;
#331 = AXIS2_PLACEMENT_3D ( 'NONE', #127, #233, #147 ) ;
#332 = ADVANCED_FACE ( 'NONE', ( #60 ), #160, .T. ) ;
#333 = VERTEX_POINT ( 'NONE', #25 ) ;
#334 = COORDINATED_UNIVERSAL_TIME_OFFSET ( 1, 0, .AHEAD. ) ;
#335 = VECTOR ( 'NONE', #328, 999.9999999999998863 ) ;
#336 = DIRECTION ( 'NONE',  ( -3.491481338843133355E-15, 1.224646799147353207E-16, -1.000000000000000000 ) ) ;
#337 = LOCAL_TIME ( 15, 22, 54.00000000000000000, #168 ) ;
ENDSEC;
END-ISO-10303-21;
