ISO-10303-21;
HEADER;
FILE_DESCRIPTION (( 'STEP AP203' ),
    '1' );
FILE_NAME ('43448.step',
    '2021-10-13T11:36:10',
    ( '' ),
    ( '' ),
    'SwSTEP 2.0',
    'SolidWorks 2019',
    '' );
FILE_SCHEMA (( 'CONFIG_CONTROL_DESIGN' ));
ENDSEC;

DATA;
#1 = DIRECTION ( 'NONE',  ( 0.0000000000000000000, 0.0000000000000000000, 1.000000000000000000 ) ) ;
#2 = PERSON_AND_ORGANIZATION ( #66, #49 ) ;
#3 = CALENDAR_DATE ( 2021, 13, 10 ) ;
#4 = ADVANCED_BREP_SHAPE_REPRESENTATION ( '43448', ( #225, #45, #162 ), #62 ) ;
#5 = AXIS2_PLACEMENT_3D ( 'NONE', #102, #99, #60 ) ;
#6 = AXIS2_PLACEMENT_3D ( 'NONE', #64, #81, #36 ) ;
#7 = SECURITY_CLASSIFICATION ( '', '', #164 ) ;
#8 = FACE_OUTER_BOUND ( 'NONE', #80, .T. ) ;
#9 = EDGE_CURVE ( 'NONE', #34, #34, #169, .T. ) ;
#10 = VERTEX_POINT ( 'NONE', #206 ) ;
#11 = EDGE_LOOP ( 'NONE', ( #191 ) ) ;
#12 = AXIS2_PLACEMENT_3D ( 'NONE', #224, #98, #160 ) ;
#13 = APPROVAL_DATE_TIME ( #29, #63 ) ;
#14 = EDGE_LOOP ( 'NONE', ( #93 ) ) ;
#15 = DIRECTION ( 'NONE',  ( 0.0000000000000000000, 1.000000000000000000, 0.0000000000000000000 ) ) ;
#16 = FACE_BOUND ( 'NONE', #51, .T. ) ;
#17 = CARTESIAN_POINT ( 'NONE',  ( 1.704778432960579199E-13, -5.000000000000018652, 48.82679491924307769 ) ) ;
#18 = FACE_OUTER_BOUND ( 'NONE', #130, .T. ) ;
#19 = EDGE_CURVE ( 'NONE', #83, #83, #165, .T. ) ;
#20 = CARTESIAN_POINT ( 'NONE',  ( 1.222018468595096801E-13, -4.100000000000020961, 35.00000000000000000 ) ) ;
#21 = DIRECTION ( 'NONE',  ( -3.491481338843133355E-15, 4.327174794786742882E-16, -1.000000000000000000 ) ) ;
#22 = CYLINDRICAL_SURFACE ( 'NONE', #172, 4.999999999999997335 ) ;
#23 = VERTEX_POINT ( 'NONE', #112 ) ;
#24 = ORIENTED_EDGE ( 'NONE', *, *, #19, .F. ) ;
#25 = CALENDAR_DATE ( 2021, 13, 10 ) ;
#26 = APPROVAL_STATUS ( 'not_yet_approved' ) ;
#27 = EDGE_LOOP ( 'NONE', ( #24 ) ) ;
#28 = ORIENTED_EDGE ( 'NONE', *, *, #144, .F. ) ;
#29 = DATE_AND_TIME ( #170, #119 ) ;
#30 = CC_DESIGN_PERSON_AND_ORGANIZATION_ASSIGNMENT ( #2, #230, ( #203 ) ) ;
#31 = FACE_OUTER_BOUND ( 'NONE', #27, .T. ) ;
#32 = DIRECTION ( 'NONE',  ( 0.0000000000000000000, -1.000000000000000000, 0.0000000000000000000 ) ) ;
#33 = ORIENTED_EDGE ( 'NONE', *, *, #144, .T. ) ;
#34 = VERTEX_POINT ( 'NONE', #17 ) ;
#35 = DIRECTION ( 'NONE',  ( -3.491481338843133355E-15, 4.327174794786742882E-16, -1.000000000000000000 ) ) ;
#36 = DIRECTION ( 'NONE',  ( 4.275831445896958607E-31, 1.000000000000000000, 1.224646799147353207E-16 ) ) ;
#37 = CC_DESIGN_PERSON_AND_ORGANIZATION_ASSIGNMENT ( #44, #123, ( #74 ) ) ;
#38 = ORIENTED_EDGE ( 'NONE', *, *, #124, .T. ) ;
#39 = APPROVAL_PERSON_ORGANIZATION ( #209, #233, #104 ) ;
#40 = CARTESIAN_POINT ( 'NONE',  ( 6.353976404174116092E-15, -2.228674911895110024E-16, 1.819851171331031914 ) ) ;
#41 = CARTESIAN_POINT ( 'NONE',  ( 1.640996229256272803E-13, -1.994931997373328159E-14, 47.00000000000000000 ) ) ;
#42 = CC_DESIGN_DATE_AND_TIME_ASSIGNMENT ( #248, #65, ( #74 ) ) ;
#43 = AXIS2_PLACEMENT_3D ( 'NONE', #155, #77, #152 ) ;
#44 = PERSON_AND_ORGANIZATION ( #66, #49 ) ;
#45 = MANIFOLD_SOLID_BREP ( 'Corps-Déplacer/Copier1[2]', #259 ) ;
#46 = PERSON_AND_ORGANIZATION_ROLE ( 'design_supplier' ) ;
#47 = CC_DESIGN_PERSON_AND_ORGANIZATION_ASSIGNMENT ( #186, #126, ( #7 ) ) ;
#48 = APPROVAL_STATUS ( 'not_yet_approved' ) ;
#49 = ORGANIZATION ( 'UNSPECIFIED', 'UNSPECIFIED', '' ) ;
#50 = PRODUCT_DEFINITION_SHAPE ( 'NONE', 'NONE',  #74 ) ;
#51 = EDGE_LOOP ( 'NONE', ( #129 ) ) ;
#52 = EDGE_LOOP ( 'NONE', ( #101 ) ) ;
#53 = AXIS2_PLACEMENT_3D ( 'NONE', #79, #97, #32 ) ;
#54 = DIRECTION ( 'NONE',  ( 0.0000000000000000000, 1.000000000000000000, 0.0000000000000000000 ) ) ;
#55 = CC_DESIGN_PERSON_AND_ORGANIZATION_ASSIGNMENT ( #182, #150, ( #193 ) ) ;
#56 = CYLINDRICAL_SURFACE ( 'NONE', #246, 4.100000000000006750 ) ;
#57 = DIRECTION ( 'NONE',  ( 0.0000000000000000000, -1.000000000000000000, 0.0000000000000000000 ) ) ;
#58 = CARTESIAN_POINT ( 'NONE',  ( 3.072503578181957353E-13, 4.999999999999990230, 88.00000000000000000 ) ) ;
#59 = EDGE_CURVE ( 'NONE', #138, #138, #153, .T. ) ;
#60 = DIRECTION ( 'NONE',  ( -4.275831445896958607E-31, -1.000000000000000000, -1.224646799147353207E-16 ) ) ;
#61 = CARTESIAN_POINT ( 'NONE',  ( 3.107418391570388560E-13, -1.089935651241144239E-14, 89.00000000000000000 ) ) ;
#62 =( GEOMETRIC_REPRESENTATION_CONTEXT ( 3 ) GLOBAL_UNCERTAINTY_ASSIGNED_CONTEXT ( ( #238 ) ) GLOBAL_UNIT_ASSIGNED_CONTEXT ( ( #145, #188, #90 ) ) REPRESENTATION_CONTEXT ( 'NONE', 'WORKASPACE' ) );
#63 = APPROVAL ( #189, 'UNSPECIFIED' ) ;
#64 = CARTESIAN_POINT ( 'NONE',  ( 3.107418391570388560E-13, 2.999519565323699889E-32, 89.00000000000000000 ) ) ;
#65 = DATE_TIME_ROLE ( 'creation_date' ) ;
#66 = PERSON ( 'UNSPECIFIED', 'UNSPECIFIED', 'UNSPECIFIED', ('UNSPECIFIED'), ('UNSPECIFIED'), ('UNSPECIFIED') ) ;
#67 = ADVANCED_FACE ( 'NONE', ( #195, #8 ), #56, .T. ) ;
#68 = CIRCLE ( 'NONE', #43, 4.100000000000006750 ) ;
#69 = ORIENTED_EDGE ( 'NONE', *, *, #59, .T. ) ;
#70 = APPLICATION_PROTOCOL_DEFINITION ( 'international standard', 'config_control_design', 1994, #179 ) ;
#71 = CARTESIAN_POINT ( 'NONE',  ( 0.0000000000000000000, 0.0000000000000000000, 0.0000000000000000000 ) ) ;
#72 = ORIENTED_EDGE ( 'NONE', *, *, #105, .F. ) ;
#73 = CC_DESIGN_APPROVAL ( #63, ( #7 ) ) ;
#74 = PRODUCT_DEFINITION ( 'UNKNOWN', '', #203, #125 ) ;
#75 = EDGE_LOOP ( 'NONE', ( #239 ) ) ;
#76 = EDGE_CURVE ( 'NONE', #261, #261, #68, .T. ) ;
#77 = DIRECTION ( 'NONE',  ( -3.491481338843133355E-15, 1.224646799147353207E-16, -1.000000000000000000 ) ) ;
#78 = APPROVAL_PERSON_ORGANIZATION ( #116, #63, #213 ) ;
#79 = CARTESIAN_POINT ( 'NONE',  ( 1.222018468595096801E-13, -1.514511178175360324E-14, 35.00000000000000000 ) ) ;
#80 = EDGE_LOOP ( 'NONE', ( #175 ) ) ;
#81 = DIRECTION ( 'NONE',  ( -3.491481338843133355E-15, 1.224646799147353207E-16, -1.000000000000000000 ) ) ;
#82 = CARTESIAN_POINT ( 'NONE',  ( 1.222018468595096801E-13, -4.100000000000020961, 35.00000000000000000 ) ) ;
#83 = VERTEX_POINT ( 'NONE', #58 ) ;
#84 = CC_DESIGN_PERSON_AND_ORGANIZATION_ASSIGNMENT ( #87, #46, ( #203 ) ) ;
#85 = PLANE ( 'NONE',  #5 ) ;
#86 = COORDINATED_UNIVERSAL_TIME_OFFSET ( 1, 0, .AHEAD. ) ;
#87 = PERSON_AND_ORGANIZATION ( #66, #49 ) ;
#88 = ADVANCED_FACE ( 'NONE', ( #31, #114 ), #196, .T. ) ;
#89 = TOROIDAL_SURFACE ( 'NONE', #234, 5.100000000000012967, 1.000000000000000000 ) ;
#90 =( NAMED_UNIT ( * ) SI_UNIT ( $, .STERADIAN. ) SOLID_ANGLE_UNIT ( ) );
#91 = CC_DESIGN_APPROVAL ( #233, ( #203 ) ) ;
#92 = DIRECTION ( 'NONE',  ( 1.510825004591027679E-30, 1.000000000000000000, 4.327174794786742389E-16 ) ) ;
#93 = ORIENTED_EDGE ( 'NONE', *, *, #9, .F. ) ;
#94 = APPROVAL_ROLE ( '' ) ;
#95 = CIRCLE ( 'NONE', #255, 4.233974596215575481 ) ;
#96 = DATE_TIME_ROLE ( 'classification_date' ) ;
#97 = DIRECTION ( 'NONE',  ( -3.491481338843133355E-15, 1.224646799147353207E-16, -1.000000000000000000 ) ) ;
#98 = DIRECTION ( 'NONE',  ( 3.491481338843133355E-15, -1.224646799147353207E-16, 1.000000000000000000 ) ) ;
#99 = DIRECTION ( 'NONE',  ( 3.491481338843133355E-15, -1.224646799147353207E-16, 1.000000000000000000 ) ) ;
#100 = EDGE_CURVE ( 'NONE', #161, #161, #95, .T. ) ;
#101 = ORIENTED_EDGE ( 'NONE', *, *, #59, .F. ) ;
#102 = CARTESIAN_POINT ( 'NONE',  ( 1.222018468595096801E-13, 3.749399456654634167E-32, 35.00000000000000000 ) ) ;
#103 = CARTESIAN_POINT ( 'NONE',  ( 1.658453635950488407E-13, 4.233974596215555053, 47.50000000000000000 ) ) ;
#104 = APPROVAL_ROLE ( '' ) ;
#105 = EDGE_CURVE ( 'NONE', #10, #10, #122, .T. ) ;
#106 = CALENDAR_DATE ( 2021, 13, 10 ) ;
#107 = AXIS2_PLACEMENT_3D ( 'NONE', #40, #118, #222 ) ;
#108 = LOCAL_TIME ( 13, 36, 10.00000000000000000, #86 ) ;
#109 = COORDINATED_UNIVERSAL_TIME_OFFSET ( 1, 0, .AHEAD. ) ;
#110 = EDGE_LOOP ( 'NONE', ( #69 ) ) ;
#111 = ADVANCED_FACE ( 'NONE', ( #16, #174 ), #131, .T. ) ;
#112 = CARTESIAN_POINT ( 'NONE',  ( 3.107418391570388560E-13, 3.999999999999990674, 89.00000000000000000 ) ) ;
#113 = ADVANCED_FACE ( 'NONE', ( #142 ), #139, .F. ) ;
#114 = FACE_BOUND ( 'NONE', #215, .T. ) ;
#115 = CARTESIAN_POINT ( 'NONE',  ( 1.658453635950488407E-13, -2.055408027523702711E-14, 47.50000000000000000 ) ) ;
#116 = PERSON_AND_ORGANIZATION ( #66, #49 ) ;
#117 = CARTESIAN_POINT ( 'NONE',  ( 1.704778432960579199E-13, -2.112820762847700606E-14, 48.82679491924307769 ) ) ;
#118 = DIRECTION ( 'NONE',  ( 3.491481338843133355E-15, -1.224646799147353207E-16, 1.000000000000000000 ) ) ;
#119 = LOCAL_TIME ( 13, 36, 10.00000000000000000, #237 ) ;
#120 = FACE_OUTER_BOUND ( 'NONE', #231, .T. ) ;
#121 = APPROVAL_DATE_TIME ( #211, #194 ) ;
#122 = CIRCLE ( 'NONE', #192, 4.100000000000006750 ) ;
#123 = PERSON_AND_ORGANIZATION_ROLE ( 'creator' ) ;
#124 = EDGE_CURVE ( 'NONE', #23, #23, #159, .T. ) ;
#125 = DESIGN_CONTEXT ( 'detailed design', #183, 'design' ) ;
#126 = PERSON_AND_ORGANIZATION_ROLE ( 'classification_officer' ) ;
#127 = CC_DESIGN_APPROVAL ( #194, ( #74 ) ) ;
#128 = ORIENTED_EDGE ( 'NONE', *, *, #19, .T. ) ;
#129 = ORIENTED_EDGE ( 'NONE', *, *, #100, .F. ) ;
#130 = EDGE_LOOP ( 'NONE', ( #72 ) ) ;
#131 = CONICAL_SURFACE ( 'NONE', #202, 5.500000000000017764, 0.5235987755983008141 ) ;
#132 = ADVANCED_FACE ( 'NONE', ( #200 ), #85, .T. ) ;
#133 = DIRECTION ( 'NONE',  ( 0.0000000000000000000, -1.000000000000000000, 0.0000000000000000000 ) ) ;
#134 = SHAPE_DEFINITION_REPRESENTATION ( #50, #4 ) ;
#135 = DIRECTION ( 'NONE',  ( 0.0000000000000000000, 1.000000000000000000, 0.0000000000000000000 ) ) ;
#136 = DIRECTION ( 'NONE',  ( -3.491481338843133355E-15, 4.327174794786742882E-16, -1.000000000000000000 ) ) ;
#137 = EDGE_LOOP ( 'NONE', ( #28 ) ) ;
#138 = VERTEX_POINT ( 'NONE', #20 ) ;
#139 = PLANE ( 'NONE',  #12 ) ;
#140 = DIRECTION ( 'NONE',  ( -3.491481338843133355E-15, 1.224646799147353207E-16, -1.000000000000000000 ) ) ;
#141 = AXIS2_PLACEMENT_3D ( 'NONE', #245, #35, #158 ) ;
#142 = FACE_OUTER_BOUND ( 'NONE', #11, .T. ) ;
#143 = DIRECTION ( 'NONE',  ( 1.000000000000000000, 0.0000000000000000000, 0.0000000000000000000 ) ) ;
#144 = EDGE_CURVE ( 'NONE', #249, #249, #154, .T. ) ;
#145 =( LENGTH_UNIT ( ) NAMED_UNIT ( * ) SI_UNIT ( .MILLI., .METRE. ) );
#146 = AXIS2_PLACEMENT_3D ( 'NONE', #204, #21, #223 ) ;
#147 = LOCAL_TIME ( 13, 36, 10.00000000000000000, #184 ) ;
#148 = DATE_AND_TIME ( #25, #147 ) ;
#149 = EDGE_LOOP ( 'NONE', ( #128 ) ) ;
#150 = PERSON_AND_ORGANIZATION_ROLE ( 'design_owner' ) ;
#151 = CARTESIAN_POINT ( 'NONE',  ( 1.640996229256272803E-13, 4.099999999999992539, 47.00000000000000000 ) ) ;
#152 = DIRECTION ( 'NONE',  ( 0.0000000000000000000, -1.000000000000000000, 0.0000000000000000000 ) ) ;
#153 = CIRCLE ( 'NONE', #53, 4.100000000000006750 ) ;
#154 = CIRCLE ( 'NONE', #146, 4.100000000000012079 ) ;
#155 = CARTESIAN_POINT ( 'NONE',  ( 1.222018468595096801E-13, -1.514511178175360324E-14, 35.00000000000000000 ) ) ;
#156 = ADVANCED_FACE ( 'NONE', ( #176 ), #216, .T. ) ;
#157 = CARTESIAN_POINT ( 'NONE',  ( 3.072503578181957353E-13, -1.077689183249670724E-14, 88.00000000000000000 ) ) ;
#158 = DIRECTION ( 'NONE',  ( 1.510825004591027679E-30, 1.000000000000000000, 4.327174794786742389E-16 ) ) ;
#159 = CIRCLE ( 'NONE', #227, 4.000000000000001776 ) ;
#160 = DIRECTION ( 'NONE',  ( -4.275831445896958607E-31, -1.000000000000000000, -1.224646799147353207E-16 ) ) ;
#161 = VERTEX_POINT ( 'NONE', #103 ) ;
#162 = AXIS2_PLACEMENT_3D ( 'NONE', #252, #1, #143 ) ;
#163 = FACE_OUTER_BOUND ( 'NONE', #137, .T. ) ;
#164 = SECURITY_CLASSIFICATION_LEVEL ( 'unclassified' ) ;
#165 = CIRCLE ( 'NONE', #260, 5.000000000000000888 ) ;
#166 = COORDINATED_UNIVERSAL_TIME_OFFSET ( 1, 0, .AHEAD. ) ;
#167 = DIRECTION ( 'NONE',  ( 3.491481338843133355E-15, -4.327174794786742882E-16, 1.000000000000000000 ) ) ;
#168 = ORIENTED_EDGE ( 'NONE', *, *, #124, .F. ) ;
#169 = CIRCLE ( 'NONE', #207, 4.999999999999997335 ) ;
#170 = CALENDAR_DATE ( 2021, 13, 10 ) ;
#171 = CARTESIAN_POINT ( 'NONE',  ( 3.107418391570388560E-13, -1.089935651241144239E-14, 89.00000000000000000 ) ) ;
#172 = AXIS2_PLACEMENT_3D ( 'NONE', #221, #220, #201 ) ;
#173 = CARTESIAN_POINT ( 'NONE',  ( 5.210260651422792945E-15, -1.827513427753996412E-16, 1.492277960491451338 ) ) ;
#174 = FACE_OUTER_BOUND ( 'NONE', #14, .T. ) ;
#175 = ORIENTED_EDGE ( 'NONE', *, *, #76, .F. ) ;
#176 = FACE_OUTER_BOUND ( 'NONE', #210, .T. ) ;
#177 = DIRECTION ( 'NONE',  ( 1.510825004591027679E-30, 1.000000000000000000, 4.327174794786742882E-16 ) ) ;
#178 = EDGE_LOOP ( 'NONE', ( #214 ) ) ;
#179 = APPLICATION_CONTEXT ( 'configuration controlled 3d designs of mechanical parts and assemblies' ) ;
#180 = FACE_OUTER_BOUND ( 'NONE', #110, .T. ) ;
#181 = ADVANCED_FACE ( 'NONE', ( #163, #247 ), #89, .F. ) ;
#182 = PERSON_AND_ORGANIZATION ( #66, #49 ) ;
#183 = APPLICATION_CONTEXT ( 'configuration controlled 3d designs of mechanical parts and assemblies' ) ;
#184 = COORDINATED_UNIVERSAL_TIME_OFFSET ( 1, 0, .AHEAD. ) ;
#185 = CC_DESIGN_DATE_AND_TIME_ASSIGNMENT ( #187, #96, ( #7 ) ) ;
#186 = PERSON_AND_ORGANIZATION ( #66, #49 ) ;
#187 = DATE_AND_TIME ( #3, #235 ) ;
#188 =( NAMED_UNIT ( * ) PLANE_ANGLE_UNIT ( ) SI_UNIT ( $, .RADIAN. ) );
#189 = APPROVAL_STATUS ( 'not_yet_approved' ) ;
#190 = ADVANCED_FACE ( 'NONE', ( #120 ), #199, .F. ) ;
#191 = ORIENTED_EDGE ( 'NONE', *, *, #76, .T. ) ;
#192 = AXIS2_PLACEMENT_3D ( 'NONE', #173, #219, #198 ) ;
#193 = PRODUCT ( '43448', '43448', '', ( #226 ) ) ;
#194 = APPROVAL ( #48, 'UNSPECIFIED' ) ;
#195 = FACE_OUTER_BOUND ( 'NONE', #256, .T. ) ;
#196 = CONICAL_SURFACE ( 'NONE', #241, 4.000000000000001776, 0.7853981633974473908 ) ;
#197 = CC_DESIGN_SECURITY_CLASSIFICATION ( #7, ( #203 ) ) ;
#198 = DIRECTION ( 'NONE',  ( -3.757912086609234612E-31, -1.000000000000000000, -1.057758217059027006E-16 ) ) ;
#199 = PLANE ( 'NONE',  #6 ) ;
#200 = FACE_OUTER_BOUND ( 'NONE', #52, .T. ) ;
#201 = DIRECTION ( 'NONE',  ( 4.275831445896959482E-31, 1.000000000000000000, 1.224646799147353207E-16 ) ) ;
#202 = AXIS2_PLACEMENT_3D ( 'NONE', #257, #240, #57 ) ;
#203 = PRODUCT_DEFINITION_FORMATION_WITH_SPECIFIED_SOURCE ( 'ANY', '', #193, .NOT_KNOWN. ) ;
#204 = CARTESIAN_POINT ( 'NONE',  ( 1.640996229256272803E-13, -2.033772153549769155E-14, 47.00000000000000000 ) ) ;
#205 = CYLINDRICAL_SURFACE ( 'NONE', #141, 4.100000000000006750 ) ;
#206 = CARTESIAN_POINT ( 'NONE',  ( 5.210260651422791367E-15, -4.100000000000006750, 1.492277960491450894 ) ) ;
#207 = AXIS2_PLACEMENT_3D ( 'NONE', #117, #167, #133 ) ;
#208 = CALENDAR_DATE ( 2021, 13, 10 ) ;
#209 = PERSON_AND_ORGANIZATION ( #66, #49 ) ;
#210 = EDGE_LOOP ( 'NONE', ( #254 ) ) ;
#211 = DATE_AND_TIME ( #106, #242 ) ;
#212 = ADVANCED_FACE ( 'NONE', ( #180, #18 ), #205, .T. ) ;
#213 = APPROVAL_ROLE ( '' ) ;
#214 = ORIENTED_EDGE ( 'NONE', *, *, #100, .T. ) ;
#215 = EDGE_LOOP ( 'NONE', ( #38 ) ) ;
#216 = CONICAL_SURFACE ( 'NONE', #107, 4.999999999999990230, 1.221730476396026610 ) ;
#217 = DIRECTION ( 'NONE',  ( -3.491481338843133355E-15, 1.224646799147353207E-16, -1.000000000000000000 ) ) ;
#218 = DIRECTION ( 'NONE',  ( -3.491481338843133355E-15, 4.327174794786742882E-16, -1.000000000000000000 ) ) ;
#219 = DIRECTION ( 'NONE',  ( -3.491481338843133355E-15, 1.224646799147353207E-16, -1.000000000000000000 ) ) ;
#220 = DIRECTION ( 'NONE',  ( -3.491481338843133355E-15, 1.224646799147353207E-16, -1.000000000000000000 ) ) ;
#221 = CARTESIAN_POINT ( 'NONE',  ( 0.0000000000000000000, 0.0000000000000000000, 0.0000000000000000000 ) ) ;
#222 = DIRECTION ( 'NONE',  ( -4.622231866529374805E-31, -1.000000000000000000, -1.301042606982607786E-16 ) ) ;
#223 = DIRECTION ( 'NONE',  ( 0.0000000000000000000, 1.000000000000000000, 0.0000000000000000000 ) ) ;
#224 = CARTESIAN_POINT ( 'NONE',  ( 1.222018468595096801E-13, 3.749399456654634167E-32, 35.00000000000000000 ) ) ;
#225 = MANIFOLD_SOLID_BREP ( 'Corps-Déplacer/Copier1[1]', #232 ) ;
#226 = MECHANICAL_CONTEXT ( 'NONE', #179, 'mechanical' ) ;
#227 = AXIS2_PLACEMENT_3D ( 'NONE', #61, #140, #263 ) ;
#228 = APPROVAL_DATE_TIME ( #148, #233 ) ;
#229 = ADVANCED_FACE ( 'NONE', ( #244, #243 ), #22, .T. ) ;
#230 = PERSON_AND_ORGANIZATION_ROLE ( 'creator' ) ;
#231 = EDGE_LOOP ( 'NONE', ( #168 ) ) ;
#232 = CLOSED_SHELL ( 'NONE', ( #229, #88, #190, #67, #111, #181, #113 ) ) ;
#233 = APPROVAL ( #26, 'UNSPECIFIED' ) ;
#234 = AXIS2_PLACEMENT_3D ( 'NONE', #41, #262, #177 ) ;
#235 = LOCAL_TIME ( 13, 36, 10.00000000000000000, #109 ) ;
#236 = DIRECTION ( 'NONE',  ( -3.491481338843133355E-15, 1.224646799147353207E-16, -1.000000000000000000 ) ) ;
#237 = COORDINATED_UNIVERSAL_TIME_OFFSET ( 1, 0, .AHEAD. ) ;
#238 = UNCERTAINTY_MEASURE_WITH_UNIT (LENGTH_MEASURE( 1.000000000000000082E-05 ), #145, 'distance_accuracy_value', 'NONE');
#239 = ORIENTED_EDGE ( 'NONE', *, *, #9, .T. ) ;
#240 = DIRECTION ( 'NONE',  ( 3.491481338843133355E-15, -4.327174794786742882E-16, 1.000000000000000000 ) ) ;
#241 = AXIS2_PLACEMENT_3D ( 'NONE', #171, #236, #54 ) ;
#242 = LOCAL_TIME ( 13, 36, 10.00000000000000000, #166 ) ;
#243 = FACE_OUTER_BOUND ( 'NONE', #149, .T. ) ;
#244 = FACE_OUTER_BOUND ( 'NONE', #75, .T. ) ;
#245 = CARTESIAN_POINT ( 'NONE',  ( 0.0000000000000000000, 0.0000000000000000000, 0.0000000000000000000 ) ) ;
#246 = AXIS2_PLACEMENT_3D ( 'NONE', #71, #218, #92 ) ;
#247 = FACE_OUTER_BOUND ( 'NONE', #178, .T. ) ;
#248 = DATE_AND_TIME ( #208, #108 ) ;
#249 = VERTEX_POINT ( 'NONE', #151 ) ;
#250 = APPROVAL_PERSON_ORGANIZATION ( #253, #194, #94 ) ;
#251 = APPLICATION_PROTOCOL_DEFINITION ( 'international standard', 'config_control_design', 1994, #183 ) ;
#252 = CARTESIAN_POINT ( 'NONE',  ( 0.0000000000000000000, 0.0000000000000000000, 0.0000000000000000000 ) ) ;
#253 = PERSON_AND_ORGANIZATION ( #66, #49 ) ;
#254 = ORIENTED_EDGE ( 'NONE', *, *, #105, .T. ) ;
#255 = AXIS2_PLACEMENT_3D ( 'NONE', #115, #136, #15 ) ;
#256 = EDGE_LOOP ( 'NONE', ( #33 ) ) ;
#257 = CARTESIAN_POINT ( 'NONE',  ( 1.735015548323354748E-13, -2.150295195836712273E-14, 49.69282032302754715 ) ) ;
#258 = PRODUCT_RELATED_PRODUCT_CATEGORY ( 'detail', '', ( #193 ) ) ;
#259 = CLOSED_SHELL ( 'NONE', ( #156, #212, #132 ) ) ;
#260 = AXIS2_PLACEMENT_3D ( 'NONE', #157, #217, #135 ) ;
#261 = VERTEX_POINT ( 'NONE', #82 ) ;
#262 = DIRECTION ( 'NONE',  ( -3.491481338843133355E-15, 4.327174794786742882E-16, -1.000000000000000000 ) ) ;
#263 = DIRECTION ( 'NONE',  ( 0.0000000000000000000, 1.000000000000000000, 0.0000000000000000000 ) ) ;
ENDSEC;
END-ISO-10303-21;
