ISO-10303-21;
HEADER;
FILE_DESCRIPTION (( 'STEP AP203' ),
    '1' );
FILE_NAME ('43447.step',
    '2021-10-13T11:36:09',
    ( '' ),
    ( '' ),
    'SwSTEP 2.0',
    'SolidWorks 2019',
    '' );
FILE_SCHEMA (( 'CONFIG_CONTROL_DESIGN' ));
ENDSEC;

DATA;
#1 = ADVANCED_FACE ( 'NONE', ( #160 ), #39, .T. ) ;
#2 = CARTESIAN_POINT ( 'NONE',  ( 8.379555213223520053E-14, 2.999519565323707552E-32, 24.00000000000000000 ) ) ;
#3 = VERTEX_POINT ( 'NONE', #117 ) ;
#4 = CIRCLE ( 'NONE', #64, 3.100000000000005418 ) ;
#5 = CC_DESIGN_APPROVAL ( #84, ( #147 ) ) ;
#6 = PERSON_AND_ORGANIZATION ( #197, #73 ) ;
#7 = ORIENTED_EDGE ( 'NONE', *, *, #155, .F. ) ;
#8 = AXIS2_PLACEMENT_3D ( 'NONE', #131, #252, #32 ) ;
#9 = SECURITY_CLASSIFICATION ( '', '', #129 ) ;
#10 = COORDINATED_UNIVERSAL_TIME_OFFSET ( 1, 0, .AHEAD. ) ;
#11 = UNCERTAINTY_MEASURE_WITH_UNIT (LENGTH_MEASURE( 1.000000000000000082E-05 ), #148, 'distance_accuracy_value', 'NONE');
#12 = PERSON_AND_ORGANIZATION ( #197, #73 ) ;
#13 = AXIS2_PLACEMENT_3D ( 'NONE', #245, #42, #165 ) ;
#14 = LOCAL_TIME ( 13, 36, 9.000000000000000000, #16 ) ;
#15 = CARTESIAN_POINT ( 'NONE',  ( 1.250885858910972494E-13, -1.550288039525424662E-14, 35.82679491924309190 ) ) ;
#16 = COORDINATED_UNIVERSAL_TIME_OFFSET ( 1, 0, .AHEAD. ) ;
#17 = FACE_OUTER_BOUND ( 'NONE', #133, .T. ) ;
#18 = CIRCLE ( 'NONE', #233, 3.100000000000005418 ) ;
#19 = CARTESIAN_POINT ( 'NONE',  ( 2.730338406975330410E-13, -9.576737969332300892E-15, 78.19999999999998863 ) ) ;
#20 = VERTEX_POINT ( 'NONE', #143 ) ;
#21 = AXIS2_PLACEMENT_3D ( 'NONE', #212, #215, #241 ) ;
#22 = CARTESIAN_POINT ( 'NONE',  ( 2.758270257686075477E-13, 2.399615652258959309E-32, 79.00000000000000000 ) ) ;
#23 = VERTEX_POINT ( 'NONE', #119 ) ;
#24 = CIRCLE ( 'NONE', #232, 3.999999999999998224 ) ;
#25 = DATE_AND_TIME ( #68, #34 ) ;
#26 = ORIENTED_EDGE ( 'NONE', *, *, #155, .T. ) ;
#27 = ORIENTED_EDGE ( 'NONE', *, *, #216, .T. ) ;
#28 = CC_DESIGN_DATE_AND_TIME_ASSIGNMENT ( #187, #168, ( #123 ) ) ;
#29 = DATE_AND_TIME ( #33, #14 ) ;
#30 = ORIENTED_EDGE ( 'NONE', *, *, #183, .F. ) ;
#31 = COORDINATED_UNIVERSAL_TIME_OFFSET ( 1, 0, .AHEAD. ) ;
#32 = DIRECTION ( 'NONE',  ( 0.0000000000000000000, 1.000000000000000000, 0.0000000000000000000 ) ) ;
#33 = CALENDAR_DATE ( 2021, 13, 10 ) ;
#34 = LOCAL_TIME ( 13, 36, 9.000000000000000000, #60 ) ;
#35 = FACE_BOUND ( 'NONE', #249, .T. ) ;
#36 = DIRECTION ( 'NONE',  ( -3.491481338843133355E-15, 1.224646799147353207E-16, -1.000000000000000000 ) ) ;
#37 = CARTESIAN_POINT ( 'NONE',  ( 8.379555213223520053E-14, 2.999519565323707552E-32, 24.00000000000000000 ) ) ;
#38 = EDGE_LOOP ( 'NONE', ( #235 ) ) ;
#39 = CONICAL_SURFACE ( 'NONE', #21, 3.999999999999992450, 1.221730476396026610 ) ;
#40 = PLANE ( 'NONE',  #162 ) ;
#41 = AXIS2_PLACEMENT_3D ( 'NONE', #37, #158, #54 ) ;
#42 = DIRECTION ( 'NONE',  ( -3.491481338843133355E-15, 1.224646799147353207E-16, -1.000000000000000000 ) ) ;
#43 = EDGE_CURVE ( 'NONE', #3, #3, #18, .T. ) ;
#44 = DIRECTION ( 'NONE',  ( 1.510825004591028030E-30, 1.000000000000000000, 4.327174794786742882E-16 ) ) ;
#45 = ADVANCED_FACE ( 'NONE', ( #56, #35 ), #247, .T. ) ;
#46 = ORIENTED_EDGE ( 'NONE', *, *, #139, .T. ) ;
#47 = APPROVAL_DATE_TIME ( #29, #84 ) ;
#48 = AXIS2_PLACEMENT_3D ( 'NONE', #59, #226, #222 ) ;
#49 = ADVANCED_FACE ( 'NONE', ( #108, #193 ), #173, .T. ) ;
#50 = DIRECTION ( 'NONE',  ( 0.0000000000000000000, 1.000000000000000000, 0.0000000000000000000 ) ) ;
#51 = APPROVAL_DATE_TIME ( #192, #102 ) ;
#52 = PERSON_AND_ORGANIZATION_ROLE ( 'creator' ) ;
#53 = APPLICATION_CONTEXT ( 'configuration controlled 3d designs of mechanical parts and assemblies' ) ;
#54 = DIRECTION ( 'NONE',  ( -4.275831445896958607E-31, -1.000000000000000000, -1.224646799147353207E-16 ) ) ;
#55 = EDGE_LOOP ( 'NONE', ( #125 ) ) ;
#56 = FACE_OUTER_BOUND ( 'NONE', #70, .T. ) ;
#57 = CIRCLE ( 'NONE', #96, 3.233974596215571928 ) ;
#58 = DIRECTION ( 'NONE',  ( -3.491481338843133355E-15, 4.327174794786742882E-16, -1.000000000000000000 ) ) ;
#59 = CARTESIAN_POINT ( 'NONE',  ( 0.0000000000000000000, 0.0000000000000000000, 0.0000000000000000000 ) ) ;
#60 = COORDINATED_UNIVERSAL_TIME_OFFSET ( 1, 0, .AHEAD. ) ;
#61 = APPROVAL_STATUS ( 'not_yet_approved' ) ;
#62 = ORIENTED_EDGE ( 'NONE', *, *, #43, .F. ) ;
#63 = CC_DESIGN_PERSON_AND_ORGANIZATION_ASSIGNMENT ( #107, #237, ( #147 ) ) ;
#64 = AXIS2_PLACEMENT_3D ( 'NONE', #203, #182, #166 ) ;
#65 = PERSON_AND_ORGANIZATION ( #197, #73 ) ;
#66 = CYLINDRICAL_SURFACE ( 'NONE', #48, 3.100000000000005418 ) ;
#67 = EDGE_LOOP ( 'NONE', ( #228 ) ) ;
#68 = CALENDAR_DATE ( 2021, 13, 10 ) ;
#69 = PLANE ( 'NONE',  #41 ) ;
#70 = EDGE_LOOP ( 'NONE', ( #30 ) ) ;
#71 = CC_DESIGN_PERSON_AND_ORGANIZATION_ASSIGNMENT ( #81, #209, ( #123 ) ) ;
#72 = CARTESIAN_POINT ( 'NONE',  ( 1.187103655206665341E-13, -1.474514954580286030E-14, 34.00000000000000000 ) ) ;
#73 = ORGANIZATION ( 'UNSPECIFIED', 'UNSPECIFIED', '' ) ;
#74 = CARTESIAN_POINT ( 'NONE',  ( 0.0000000000000000000, 0.0000000000000000000, 0.0000000000000000000 ) ) ;
#75 = MANIFOLD_SOLID_BREP ( 'Corps-Déplacer/Copier1[1]', #104 ) ;
#76 =( NAMED_UNIT ( * ) PLANE_ANGLE_UNIT ( ) SI_UNIT ( $, .RADIAN. ) );
#77 = DIRECTION ( 'NONE',  ( 4.275831445896958607E-31, 1.000000000000000000, 1.224646799147353207E-16 ) ) ;
#78 = APPROVAL_PERSON_ORGANIZATION ( #12, #102, #135 ) ;
#79 = DIRECTION ( 'NONE',  ( 1.000000000000000000, 0.0000000000000000000, 0.0000000000000000000 ) ) ;
#80 = MANIFOLD_SOLID_BREP ( 'Corps-Déplacer/Copier1[2]', #100 ) ;
#81 = PERSON_AND_ORGANIZATION ( #197, #73 ) ;
#82 = EDGE_LOOP ( 'NONE', ( #205 ) ) ;
#83 = AXIS2_PLACEMENT_3D ( 'NONE', #2, #261, #118 ) ;
#84 = APPROVAL ( #61, 'UNSPECIFIED' ) ;
#85 = EDGE_LOOP ( 'NONE', ( #188 ) ) ;
#86 = AXIS2_PLACEMENT_3D ( 'NONE', #224, #58, #44 ) ;
#87 = PERSON_AND_ORGANIZATION_ROLE ( 'classification_officer' ) ;
#88 = FACE_BOUND ( 'NONE', #55, .T. ) ;
#89 = EDGE_LOOP ( 'NONE', ( #62 ) ) ;
#90 = DIRECTION ( 'NONE',  ( 0.0000000000000000000, 1.000000000000000000, 0.0000000000000000000 ) ) ;
#91 = DIRECTION ( 'NONE',  ( 3.491481338843133355E-15, -4.327174794786742882E-16, 1.000000000000000000 ) ) ;
#92 = CARTESIAN_POINT ( 'NONE',  ( 1.250885858910972494E-13, -4.000000000000014211, 35.82679491924309190 ) ) ;
#93 = CC_DESIGN_DATE_AND_TIME_ASSIGNMENT ( #172, #211, ( #9 ) ) ;
#94 =( NAMED_UNIT ( * ) SI_UNIT ( $, .STERADIAN. ) SOLID_ANGLE_UNIT ( ) );
#95 = APPLICATION_PROTOCOL_DEFINITION ( 'international standard', 'config_control_design', 1994, #136 ) ;
#96 = AXIS2_PLACEMENT_3D ( 'NONE', #111, #198, #112 ) ;
#97 = VERTEX_POINT ( 'NONE', #142 ) ;
#98 = CARTESIAN_POINT ( 'NONE',  ( 1.204561061900881197E-13, 3.233974596215557273, 34.50000000000000000 ) ) ;
#99 = APPROVAL_STATUS ( 'not_yet_approved' ) ;
#100 = CLOSED_SHELL ( 'NONE', ( #1, #189, #180 ) ) ;
#101 = CALENDAR_DATE ( 2021, 13, 10 ) ;
#102 = APPROVAL ( #99, 'UNSPECIFIED' ) ;
#103 = EDGE_LOOP ( 'NONE', ( #124 ) ) ;
#104 = CLOSED_SHELL ( 'NONE', ( #49, #45, #231, #210, #128, #186, #259 ) ) ;
#105 = PERSON_AND_ORGANIZATION ( #197, #73 ) ;
#106 = EDGE_LOOP ( 'NONE', ( #27 ) ) ;
#107 = PERSON_AND_ORGANIZATION ( #197, #73 ) ;
#108 = FACE_OUTER_BOUND ( 'NONE', #207, .T. ) ;
#109 = PERSON_AND_ORGANIZATION ( #197, #73 ) ;
#110 = CARTESIAN_POINT ( 'NONE',  ( 1.281122974273747790E-13, -1.587762472514436014E-14, 36.69282032302755425 ) ) ;
#111 = CARTESIAN_POINT ( 'NONE',  ( 1.204561061900881197E-13, -1.492875304201426452E-14, 34.50000000000000000 ) ) ;
#112 = DIRECTION ( 'NONE',  ( 0.0000000000000000000, 1.000000000000000000, 0.0000000000000000000 ) ) ;
#113 = CIRCLE ( 'NONE', #8, 3.100000000000010747 ) ;
#114 = AXIS2_PLACEMENT_3D ( 'NONE', #110, #91, #258 ) ;
#115 = APPROVAL ( #195, 'UNSPECIFIED' ) ;
#116 = DIRECTION ( 'NONE',  ( 1.510825004591027855E-30, 1.000000000000000000, 4.327174794786742882E-16 ) ) ;
#117 = CARTESIAN_POINT ( 'NONE',  ( 8.379555213223520053E-14, -3.100000000000016076, 24.00000000000000000 ) ) ;
#118 = DIRECTION ( 'NONE',  ( -4.275831445896958607E-31, -1.000000000000000000, -1.224646799147353207E-16 ) ) ;
#119 = CARTESIAN_POINT ( 'NONE',  ( 8.379555213223520053E-14, -3.100000000000016076, 24.00000000000000000 ) ) ;
#120 = CC_DESIGN_PERSON_AND_ORGANIZATION_ASSIGNMENT ( #109, #213, ( #257 ) ) ;
#121 = DIRECTION ( 'NONE',  ( -3.491481338843133355E-15, 1.224646799147353207E-16, -1.000000000000000000 ) ) ;
#122 = FACE_OUTER_BOUND ( 'NONE', #67, .T. ) ;
#123 = PRODUCT_DEFINITION ( 'UNKNOWN', '', #147, #236 ) ;
#124 = ORIENTED_EDGE ( 'NONE', *, *, #43, .T. ) ;
#125 = ORIENTED_EDGE ( 'NONE', *, *, #171, .F. ) ;
#126 = AXIS2_PLACEMENT_3D ( 'NONE', #217, #159, #50 ) ;
#127 = CC_DESIGN_APPROVAL ( #102, ( #9 ) ) ;
#128 = ADVANCED_FACE ( 'NONE', ( #88, #254 ), #169, .T. ) ;
#129 = SECURITY_CLASSIFICATION_LEVEL ( 'unclassified' ) ;
#130 = CALENDAR_DATE ( 2021, 13, 10 ) ;
#131 = CARTESIAN_POINT ( 'NONE',  ( 1.187103655206665341E-13, -1.471239430227492580E-14, 34.00000000000000000 ) ) ;
#132 = SHAPE_DEFINITION_REPRESENTATION ( #263, #151 ) ;
#133 = EDGE_LOOP ( 'NONE', ( #7 ) ) ;
#134 = CIRCLE ( 'NONE', #13, 3.100000000000005418 ) ;
#135 = APPROVAL_ROLE ( '' ) ;
#136 = APPLICATION_CONTEXT ( 'configuration controlled 3d designs of mechanical parts and assemblies' ) ;
#137 = ORIENTED_EDGE ( 'NONE', *, *, #216, .F. ) ;
#138 = CARTESIAN_POINT ( 'NONE',  ( 0.0000000000000000000, 0.0000000000000000000, 0.0000000000000000000 ) ) ;
#139 = EDGE_CURVE ( 'NONE', #221, #221, #24, .T. ) ;
#140 = FACE_OUTER_BOUND ( 'NONE', #82, .T. ) ;
#141 = CIRCLE ( 'NONE', #219, 4.000000000000001776 ) ;
#142 = CARTESIAN_POINT ( 'NONE',  ( 2.730338406975330410E-13, 3.999999999999992450, 78.19999999999998863 ) ) ;
#143 = CARTESIAN_POINT ( 'NONE',  ( 3.939465370587964993E-15, -3.100000000000005418, 1.128307726225243668 ) ) ;
#144 = VERTEX_POINT ( 'NONE', #260 ) ;
#145 = CC_DESIGN_PERSON_AND_ORGANIZATION_ASSIGNMENT ( #6, #52, ( #147 ) ) ;
#146 = PLANE ( 'NONE',  #83 ) ;
#147 = PRODUCT_DEFINITION_FORMATION_WITH_SPECIFIED_SOURCE ( 'ANY', '', #257, .NOT_KNOWN. ) ;
#148 =( LENGTH_UNIT ( ) NAMED_UNIT ( * ) SI_UNIT ( .MILLI., .METRE. ) );
#149 = APPROVAL_ROLE ( '' ) ;
#150 = APPROVAL_PERSON_ORGANIZATION ( #175, #115, #204 ) ;
#151 = ADVANCED_BREP_SHAPE_REPRESENTATION ( '43447', ( #75, #80, #229 ), #194 ) ;
#152 = ORIENTED_EDGE ( 'NONE', *, *, #242, .F. ) ;
#153 = ORIENTED_EDGE ( 'NONE', *, *, #225, .T. ) ;
#154 = CALENDAR_DATE ( 2021, 13, 10 ) ;
#155 = EDGE_CURVE ( 'NONE', #144, #144, #113, .T. ) ;
#156 = DIRECTION ( 'NONE',  ( 3.491481338843133355E-15, -4.327174794786742882E-16, 1.000000000000000000 ) ) ;
#157 = APPLICATION_PROTOCOL_DEFINITION ( 'international standard', 'config_control_design', 1994, #53 ) ;
#158 = DIRECTION ( 'NONE',  ( 3.491481338843133355E-15, -1.224646799147353207E-16, 1.000000000000000000 ) ) ;
#159 = DIRECTION ( 'NONE',  ( -3.491481338843133355E-15, 1.224646799147353207E-16, -1.000000000000000000 ) ) ;
#160 = FACE_OUTER_BOUND ( 'NONE', #106, .T. ) ;
#161 = DIRECTION ( 'NONE',  ( -3.491481338843133355E-15, 1.224646799147353207E-16, -1.000000000000000000 ) ) ;
#162 = AXIS2_PLACEMENT_3D ( 'NONE', #22, #121, #77 ) ;
#163 = CYLINDRICAL_SURFACE ( 'NONE', #86, 3.100000000000005418 ) ;
#164 = DIRECTION ( 'NONE',  ( 0.0000000000000000000, 0.0000000000000000000, 1.000000000000000000 ) ) ;
#165 = DIRECTION ( 'NONE',  ( -4.970141791967051254E-31, -1.000000000000000000, -1.398970545142583830E-16 ) ) ;
#166 = DIRECTION ( 'NONE',  ( 0.0000000000000000000, -1.000000000000000000, 0.0000000000000000000 ) ) ;
#167 = AXIS2_PLACEMENT_3D ( 'NONE', #138, #179, #255 ) ;
#168 = DATE_TIME_ROLE ( 'creation_date' ) ;
#169 = CONICAL_SURFACE ( 'NONE', #114, 4.500000000000012434, 0.5235987755982989267 ) ;
#170 = EDGE_LOOP ( 'NONE', ( #152 ) ) ;
#171 = EDGE_CURVE ( 'NONE', #202, #202, #57, .T. ) ;
#172 = DATE_AND_TIME ( #130, #262 ) ;
#173 = CYLINDRICAL_SURFACE ( 'NONE', #167, 3.999999999999998224 ) ;
#174 = AXIS2_PLACEMENT_3D ( 'NONE', #72, #218, #116 ) ;
#175 = PERSON_AND_ORGANIZATION ( #197, #73 ) ;
#176 = DIRECTION ( 'NONE',  ( 0.0000000000000000000, -1.000000000000000000, 0.0000000000000000000 ) ) ;
#177 = DIRECTION ( 'NONE',  ( -3.491481338843133355E-15, 1.224646799147353207E-16, -1.000000000000000000 ) ) ;
#178 = FACE_OUTER_BOUND ( 'NONE', #38, .T. ) ;
#179 = DIRECTION ( 'NONE',  ( -3.491481338843133355E-15, 1.224646799147353207E-16, -1.000000000000000000 ) ) ;
#180 = ADVANCED_FACE ( 'NONE', ( #238 ), #69, .T. ) ;
#181 = CARTESIAN_POINT ( 'NONE',  ( 2.758270257686075477E-13, 3.199999999999992184, 79.00000000000000000 ) ) ;
#182 = DIRECTION ( 'NONE',  ( -3.491481338843133355E-15, 1.224646799147353207E-16, -1.000000000000000000 ) ) ;
#183 = EDGE_CURVE ( 'NONE', #97, #97, #141, .T. ) ;
#184 = CC_DESIGN_APPROVAL ( #115, ( #123 ) ) ;
#185 = DIRECTION ( 'NONE',  ( 0.0000000000000000000, 1.000000000000000000, 0.0000000000000000000 ) ) ;
#186 = ADVANCED_FACE ( 'NONE', ( #17, #178 ), #190, .F. ) ;
#187 = DATE_AND_TIME ( #101, #214 ) ;
#188 = ORIENTED_EDGE ( 'NONE', *, *, #183, .T. ) ;
#189 = ADVANCED_FACE ( 'NONE', ( #140, #199 ), #66, .T. ) ;
#190 = TOROIDAL_SURFACE ( 'NONE', #174, 4.100000000000011191, 1.000000000000000444 ) ;
#191 = PRODUCT_RELATED_PRODUCT_CATEGORY ( 'detail', '', ( #257 ) ) ;
#192 = DATE_AND_TIME ( #154, #251 ) ;
#193 = FACE_OUTER_BOUND ( 'NONE', #85, .T. ) ;
#194 =( GEOMETRIC_REPRESENTATION_CONTEXT ( 3 ) GLOBAL_UNCERTAINTY_ASSIGNED_CONTEXT ( ( #11 ) ) GLOBAL_UNIT_ASSIGNED_CONTEXT ( ( #148, #76, #94 ) ) REPRESENTATION_CONTEXT ( 'NONE', 'WORKASPACE' ) );
#195 = APPROVAL_STATUS ( 'not_yet_approved' ) ;
#196 = CARTESIAN_POINT ( 'NONE',  ( 8.379555213223520053E-14, -1.038521950748818292E-14, 24.00000000000000000 ) ) ;
#197 = PERSON ( 'UNSPECIFIED', 'UNSPECIFIED', 'UNSPECIFIED', ('UNSPECIFIED'), ('UNSPECIFIED'), ('UNSPECIFIED') ) ;
#198 = DIRECTION ( 'NONE',  ( -3.491481338843133355E-15, 4.327174794786742882E-16, -1.000000000000000000 ) ) ;
#199 = FACE_OUTER_BOUND ( 'NONE', #234, .T. ) ;
#200 = FACE_OUTER_BOUND ( 'NONE', #89, .T. ) ;
#201 = AXIS2_PLACEMENT_3D ( 'NONE', #243, #161, #185 ) ;
#202 = VERTEX_POINT ( 'NONE', #98 ) ;
#203 = CARTESIAN_POINT ( 'NONE',  ( 8.379555213223520053E-14, -1.038521950748818292E-14, 24.00000000000000000 ) ) ;
#204 = APPROVAL_ROLE ( '' ) ;
#205 = ORIENTED_EDGE ( 'NONE', *, *, #242, .T. ) ;
#206 = CC_DESIGN_PERSON_AND_ORGANIZATION_ASSIGNMENT ( #105, #87, ( #9 ) ) ;
#207 = EDGE_LOOP ( 'NONE', ( #46 ) ) ;
#208 = CC_DESIGN_SECURITY_CLASSIFICATION ( #9, ( #147 ) ) ;
#209 = PERSON_AND_ORGANIZATION_ROLE ( 'creator' ) ;
#210 = ADVANCED_FACE ( 'NONE', ( #246, #200 ), #163, .T. ) ;
#211 = DATE_TIME_ROLE ( 'classification_date' ) ;
#212 = CARTESIAN_POINT ( 'NONE',  ( 5.083181123339292873E-15, -1.782939929516087970E-16, 1.455880937064825575 ) ) ;
#213 = PERSON_AND_ORGANIZATION_ROLE ( 'design_owner' ) ;
#214 = LOCAL_TIME ( 13, 36, 9.000000000000000000, #250 ) ;
#215 = DIRECTION ( 'NONE',  ( 3.491481338843133355E-15, -1.224646799147353207E-16, 1.000000000000000000 ) ) ;
#216 = EDGE_CURVE ( 'NONE', #20, #20, #134, .T. ) ;
#217 = CARTESIAN_POINT ( 'NONE',  ( 2.758270257686075477E-13, -9.674709713264090904E-15, 79.00000000000000000 ) ) ;
#218 = DIRECTION ( 'NONE',  ( -3.491481338843133355E-15, 4.327174794786742882E-16, -1.000000000000000000 ) ) ;
#219 = AXIS2_PLACEMENT_3D ( 'NONE', #19, #36, #90 ) ;
#220 = FACE_OUTER_BOUND ( 'NONE', #103, .T. ) ;
#221 = VERTEX_POINT ( 'NONE', #92 ) ;
#222 = DIRECTION ( 'NONE',  ( 1.510825004591028030E-30, 1.000000000000000000, 4.327174794786742882E-16 ) ) ;
#223 = APPROVAL_PERSON_ORGANIZATION ( #65, #84, #149 ) ;
#224 = CARTESIAN_POINT ( 'NONE',  ( 0.0000000000000000000, 0.0000000000000000000, 0.0000000000000000000 ) ) ;
#225 = EDGE_CURVE ( 'NONE', #248, #248, #244, .T. ) ;
#226 = DIRECTION ( 'NONE',  ( -3.491481338843133355E-15, 4.327174794786742882E-16, -1.000000000000000000 ) ) ;
#227 = MECHANICAL_CONTEXT ( 'NONE', #136, 'mechanical' ) ;
#228 = ORIENTED_EDGE ( 'NONE', *, *, #225, .F. ) ;
#229 = AXIS2_PLACEMENT_3D ( 'NONE', #74, #164, #79 ) ;
#230 = EDGE_LOOP ( 'NONE', ( #26 ) ) ;
#231 = ADVANCED_FACE ( 'NONE', ( #122 ), #40, .F. ) ;
#232 = AXIS2_PLACEMENT_3D ( 'NONE', #15, #156, #176 ) ;
#233 = AXIS2_PLACEMENT_3D ( 'NONE', #196, #177, #239 ) ;
#234 = EDGE_LOOP ( 'NONE', ( #137 ) ) ;
#235 = ORIENTED_EDGE ( 'NONE', *, *, #171, .T. ) ;
#236 = DESIGN_CONTEXT ( 'detailed design', #53, 'design' ) ;
#237 = PERSON_AND_ORGANIZATION_ROLE ( 'design_supplier' ) ;
#238 = FACE_OUTER_BOUND ( 'NONE', #170, .T. ) ;
#239 = DIRECTION ( 'NONE',  ( 0.0000000000000000000, -1.000000000000000000, 0.0000000000000000000 ) ) ;
#240 = ORIENTED_EDGE ( 'NONE', *, *, #139, .F. ) ;
#241 = DIRECTION ( 'NONE',  ( -3.851859888774479151E-31, -1.000000000000000000, -1.084202172485506529E-16 ) ) ;
#242 = EDGE_CURVE ( 'NONE', #23, #23, #4, .T. ) ;
#243 = CARTESIAN_POINT ( 'NONE',  ( 2.758270257686075477E-13, -9.674709713264090904E-15, 79.00000000000000000 ) ) ;
#244 = CIRCLE ( 'NONE', #201, 3.200000000000001954 ) ;
#245 = CARTESIAN_POINT ( 'NONE',  ( 3.939465370587966571E-15, -1.381778445374973372E-16, 1.128307726225244112 ) ) ;
#246 = FACE_OUTER_BOUND ( 'NONE', #230, .T. ) ;
#247 = CONICAL_SURFACE ( 'NONE', #126, 3.200000000000001954, 0.7853981633974426169 ) ;
#248 = VERTEX_POINT ( 'NONE', #181 ) ;
#249 = EDGE_LOOP ( 'NONE', ( #153 ) ) ;
#250 = COORDINATED_UNIVERSAL_TIME_OFFSET ( 1, 0, .AHEAD. ) ;
#251 = LOCAL_TIME ( 13, 36, 9.000000000000000000, #31 ) ;
#252 = DIRECTION ( 'NONE',  ( -3.491481338843133355E-15, 4.327174794786742882E-16, -1.000000000000000000 ) ) ;
#253 = APPROVAL_DATE_TIME ( #25, #115 ) ;
#254 = FACE_OUTER_BOUND ( 'NONE', #256, .T. ) ;
#255 = DIRECTION ( 'NONE',  ( 4.275831445896958607E-31, 1.000000000000000000, 1.224646799147353207E-16 ) ) ;
#256 = EDGE_LOOP ( 'NONE', ( #240 ) ) ;
#257 = PRODUCT ( '43447', '43447', '', ( #227 ) ) ;
#258 = DIRECTION ( 'NONE',  ( 0.0000000000000000000, -1.000000000000000000, 0.0000000000000000000 ) ) ;
#259 = ADVANCED_FACE ( 'NONE', ( #220 ), #146, .F. ) ;
#260 = CARTESIAN_POINT ( 'NONE',  ( 1.187103655206665341E-13, 3.099999999999996092, 34.00000000000000000 ) ) ;
#261 = DIRECTION ( 'NONE',  ( 3.491481338843133355E-15, -1.224646799147353207E-16, 1.000000000000000000 ) ) ;
#262 = LOCAL_TIME ( 13, 36, 9.000000000000000000, #10 ) ;
#263 = PRODUCT_DEFINITION_SHAPE ( 'NONE', 'NONE',  #123 ) ;
ENDSEC;
END-ISO-10303-21;
