ISO-10303-21;
HEADER;
FILE_DESCRIPTION (( 'STEP AP203' ),
    '1' );
FILE_NAME ('43415.step',
    '2021-10-07T13:48:01',
    ( '' ),
    ( '' ),
    'SwSTEP 2.0',
    'SolidWorks 2019',
    '' );
FILE_SCHEMA (( 'CONFIG_CONTROL_DESIGN' ));
ENDSEC;

DATA;
#1 = DIRECTION ( 'NONE',  ( 0.0000000000000000000, 1.000000000000000000, 0.0000000000000000000 ) ) ;
#2 = PRODUCT_RELATED_PRODUCT_CATEGORY ( 'detail', '', ( #138 ) ) ;
#3 = CARTESIAN_POINT ( 'NONE',  ( 4.189777606611760026E-14, 6.486461060012467921E-33, 12.00000000000000000 ) ) ;
#4 = CARTESIAN_POINT ( 'NONE',  ( 1.814677997372104054E-15, -6.365033592593182078E-17, 0.5197444354588413029 ) ) ;
#5 = APPROVAL ( #35, 'UNSPECIFIED' ) ;
#6 = DIRECTION ( 'NONE',  ( 4.275831445896957731E-31, 1.000000000000000000, 1.224646799147353454E-16 ) ) ;
#7 = CALENDAR_DATE ( 2021, 7, 10 ) ;
#8 = PERSON ( 'UNSPECIFIED', 'UNSPECIFIED', 'UNSPECIFIED', ('UNSPECIFIED'), ('UNSPECIFIED'), ('UNSPECIFIED') ) ;
#9 = DATE_AND_TIME ( #7, #27 ) ;
#10 = AXIS2_PLACEMENT_3D ( 'NONE', #129, #144, #25 ) ;
#11 =( NAMED_UNIT ( * ) PLANE_ANGLE_UNIT ( ) SI_UNIT ( $, .RADIAN. ) );
#12 = EDGE_LOOP ( 'NONE', ( #153 ) ) ;
#13 = APPROVAL_ROLE ( '' ) ;
#14 = PRODUCT_DEFINITION_SHAPE ( 'NONE', 'NONE',  #212 ) ;
#15 = PERSON_AND_ORGANIZATION_ROLE ( 'design_owner' ) ;
#16 = CLOSED_SHELL ( 'NONE', ( #166, #112, #99, #65, #19 ) ) ;
#17 =( GEOMETRIC_REPRESENTATION_CONTEXT ( 3 ) GLOBAL_UNCERTAINTY_ASSIGNED_CONTEXT ( ( #137 ) ) GLOBAL_UNIT_ASSIGNED_CONTEXT ( ( #189, #11, #101 ) ) REPRESENTATION_CONTEXT ( 'NONE', 'WORKASPACE' ) );
#18 = SHAPE_DEFINITION_REPRESENTATION ( #14, #60 ) ;
#19 = ADVANCED_FACE ( 'NONE', ( #69 ), #54, .F. ) ;
#20 = EDGE_LOOP ( 'NONE', ( #34 ) ) ;
#21 = FACE_OUTER_BOUND ( 'NONE', #175, .T. ) ;
#22 = AXIS2_PLACEMENT_3D ( 'NONE', #109, #42, #124 ) ;
#23 = ORGANIZATION ( 'UNSPECIFIED', 'UNSPECIFIED', '' ) ;
#24 = CARTESIAN_POINT ( 'NONE',  ( 1.319779946082704535E-13, -4.629164900776995227E-15, 37.79999999999999716 ) ) ;
#25 = DIRECTION ( 'NONE',  ( 0.0000000000000000000, -1.000000000000000000, 0.0000000000000000000 ) ) ;
#26 = FACE_OUTER_BOUND ( 'NONE', #72, .T. ) ;
#27 = LOCAL_TIME ( 15, 48, 1.000000000000000000, #170 ) ;
#28 = CARTESIAN_POINT ( 'NONE',  ( 4.189777606611760026E-14, 0.8649999999999925526, 12.00000000000000000 ) ) ;
#29 = CIRCLE ( 'NONE', #216, 0.9999999999999970024 ) ;
#30 = EDGE_CURVE ( 'NONE', #111, #111, #29, .T. ) ;
#31 = ADVANCED_FACE ( 'NONE', ( #26 ), #121, .T. ) ;
#32 = CARTESIAN_POINT ( 'NONE',  ( 1.814677997372104448E-15, 0.8649999999999934408, 0.5197444354588414139 ) ) ;
#33 = DATE_TIME_ROLE ( 'classification_date' ) ;
#34 = ORIENTED_EDGE ( 'NONE', *, *, #46, .F. ) ;
#35 = APPROVAL_STATUS ( 'not_yet_approved' ) ;
#36 = EDGE_LOOP ( 'NONE', ( #220 ) ) ;
#37 = CYLINDRICAL_SURFACE ( 'NONE', #185, 0.9999999999999988898 ) ;
#38 = CARTESIAN_POINT ( 'NONE',  ( 0.0000000000000000000, 0.0000000000000000000, 0.0000000000000000000 ) ) ;
#39 = CONICAL_SURFACE ( 'NONE', #167, 0.8000000000000010436, 0.7853981633974510546 ) ;
#40 = DIRECTION ( 'NONE',  ( 0.0000000000000000000, 1.000000000000000000, 0.0000000000000000000 ) ) ;
#41 = PLANE ( 'NONE',  #22 ) ;
#42 = DIRECTION ( 'NONE',  ( 3.491481338843133355E-15, -1.224646799147353207E-16, 1.000000000000000000 ) ) ;
#43 = DIRECTION ( 'NONE',  ( 1.000000000000000000, 0.0000000000000000000, 0.0000000000000000000 ) ) ;
#44 = CALENDAR_DATE ( 2021, 7, 10 ) ;
#45 = CC_DESIGN_PERSON_AND_ORGANIZATION_ASSIGNMENT ( #51, #62, ( #58 ) ) ;
#46 = EDGE_CURVE ( 'NONE', #208, #208, #160, .T. ) ;
#47 = DATE_TIME_ROLE ( 'creation_date' ) ;
#48 = ORIENTED_EDGE ( 'NONE', *, *, #92, .T. ) ;
#49 = APPLICATION_PROTOCOL_DEFINITION ( 'international standard', 'config_control_design', 1994, #114 ) ;
#50 = EDGE_LOOP ( 'NONE', ( #53 ) ) ;
#51 = PERSON_AND_ORGANIZATION ( #8, #23 ) ;
#52 = APPROVAL ( #169, 'UNSPECIFIED' ) ;
#53 = ORIENTED_EDGE ( 'NONE', *, *, #143, .F. ) ;
#54 = PLANE ( 'NONE',  #177 ) ;
#55 = CALENDAR_DATE ( 2021, 7, 10 ) ;
#56 = VERTEX_POINT ( 'NONE', #193 ) ;
#57 = DIRECTION ( 'NONE',  ( 4.453017212456070133E-31, 1.000000000000000000, 1.253412916168222642E-16 ) ) ;
#58 = PRODUCT_DEFINITION_FORMATION_WITH_SPECIFIED_SOURCE ( 'ANY', '', #138, .NOT_KNOWN. ) ;
#59 = DIRECTION ( 'NONE',  ( -3.491481338843133355E-15, 1.224646799147353207E-16, -1.000000000000000000 ) ) ;
#60 = ADVANCED_BREP_SHAPE_REPRESENTATION ( '43415', ( #202, #131, #161 ), #17 ) ;
#61 = DIRECTION ( 'NONE',  ( 4.275831445896958607E-31, 1.000000000000000000, 1.224646799147353207E-16 ) ) ;
#62 = PERSON_AND_ORGANIZATION_ROLE ( 'design_supplier' ) ;
#63 = CLOSED_SHELL ( 'NONE', ( #31, #199, #222 ) ) ;
#64 = PERSON_AND_ORGANIZATION ( #8, #23 ) ;
#65 = ADVANCED_FACE ( 'NONE', ( #93, #78 ), #39, .T. ) ;
#66 = AXIS2_PLACEMENT_3D ( 'NONE', #105, #195, #77 ) ;
#67 = DIRECTION ( 'NONE',  ( 0.0000000000000000000, 0.0000000000000000000, 1.000000000000000000 ) ) ;
#68 = VERTEX_POINT ( 'NONE', #32 ) ;
#69 = FACE_OUTER_BOUND ( 'NONE', #173, .T. ) ;
#70 = LOCAL_TIME ( 15, 48, 1.000000000000000000, #86 ) ;
#71 = DIRECTION ( 'NONE',  ( 4.275831445896958607E-31, 1.000000000000000000, 1.224646799147353207E-16 ) ) ;
#72 = EDGE_LOOP ( 'NONE', ( #119 ) ) ;
#73 = EDGE_CURVE ( 'NONE', #223, #223, #110, .T. ) ;
#74 = AXIS2_PLACEMENT_3D ( 'NONE', #4, #197, #57 ) ;
#75 = ORIENTED_EDGE ( 'NONE', *, *, #46, .T. ) ;
#76 = VERTEX_POINT ( 'NONE', #142 ) ;
#77 = DIRECTION ( 'NONE',  ( 0.0000000000000000000, 1.000000000000000000, 0.0000000000000000000 ) ) ;
#78 = FACE_BOUND ( 'NONE', #87, .T. ) ;
#79 = DIRECTION ( 'NONE',  ( -3.491481338843133355E-15, 1.224646799147353207E-16, -1.000000000000000000 ) ) ;
#80 = CARTESIAN_POINT ( 'NONE',  ( 4.189777606611760026E-14, 0.8649999999999925526, 12.00000000000000000 ) ) ;
#81 = PERSON_AND_ORGANIZATION_ROLE ( 'creator' ) ;
#82 = CC_DESIGN_APPROVAL ( #156, ( #58 ) ) ;
#83 = CALENDAR_DATE ( 2021, 7, 10 ) ;
#84 = AXIS2_PLACEMENT_3D ( 'NONE', #176, #108, #179 ) ;
#85 = DESIGN_CONTEXT ( 'detailed design', #165, 'design' ) ;
#86 = COORDINATED_UNIVERSAL_TIME_OFFSET ( 1, 0, .AHEAD. ) ;
#87 = EDGE_LOOP ( 'NONE', ( #102 ) ) ;
#88 = CC_DESIGN_DATE_AND_TIME_ASSIGNMENT ( #164, #47, ( #212 ) ) ;
#89 = DIRECTION ( 'NONE',  ( 3.491481338843133355E-15, -1.224646799147353207E-16, 1.000000000000000000 ) ) ;
#90 = FACE_BOUND ( 'NONE', #20, .T. ) ;
#91 = CARTESIAN_POINT ( 'NONE',  ( 1.326762908760390423E-13, -4.653657836759941941E-15, 38.00000000000000000 ) ) ;
#92 = EDGE_CURVE ( 'NONE', #76, #76, #194, .T. ) ;
#93 = FACE_OUTER_BOUND ( 'NONE', #103, .T. ) ;
#94 = DIRECTION ( 'NONE',  ( -3.491481338843133355E-15, 1.224646799147353207E-16, -1.000000000000000000 ) ) ;
#95 = DATE_AND_TIME ( #44, #70 ) ;
#96 = APPROVAL_PERSON_ORGANIZATION ( #98, #52, #13 ) ;
#97 = APPROVAL_ROLE ( '' ) ;
#98 = PERSON_AND_ORGANIZATION ( #8, #23 ) ;
#99 = ADVANCED_FACE ( 'NONE', ( #162, #147 ), #37, .T. ) ;
#100 = CARTESIAN_POINT ( 'NONE',  ( 1.326762908760390423E-13, 5.999039130647368167E-33, 38.00000000000000000 ) ) ;
#101 =( NAMED_UNIT ( * ) SI_UNIT ( $, .STERADIAN. ) SOLID_ANGLE_UNIT ( ) );
#102 = ORIENTED_EDGE ( 'NONE', *, *, #107, .T. ) ;
#103 = EDGE_LOOP ( 'NONE', ( #221 ) ) ;
#104 = CC_DESIGN_PERSON_AND_ORGANIZATION_ASSIGNMENT ( #113, #15, ( #138 ) ) ;
#105 = CARTESIAN_POINT ( 'NONE',  ( 1.326762908760390423E-13, -4.653657836759941941E-15, 38.00000000000000000 ) ) ;
#106 = FACE_OUTER_BOUND ( 'NONE', #203, .T. ) ;
#107 = EDGE_CURVE ( 'NONE', #56, #56, #172, .T. ) ;
#108 = DIRECTION ( 'NONE',  ( 3.491481338843133355E-15, -1.224646799147353207E-16, 1.000000000000000000 ) ) ;
#109 = CARTESIAN_POINT ( 'NONE',  ( 4.189777606611760026E-14, 6.486461060012467921E-33, 12.00000000000000000 ) ) ;
#110 = CIRCLE ( 'NONE', #141, 0.8649999999999939959 ) ;
#111 = VERTEX_POINT ( 'NONE', #183 ) ;
#112 = ADVANCED_FACE ( 'NONE', ( #90, #21 ), #206, .T. ) ;
#113 = PERSON_AND_ORGANIZATION ( #8, #23 ) ;
#114 = APPLICATION_CONTEXT ( 'configuration controlled 3d designs of mechanical parts and assemblies' ) ;
#115 = APPROVAL_DATE_TIME ( #95, #5 ) ;
#116 = EDGE_LOOP ( 'NONE', ( #48 ) ) ;
#117 = APPROVAL_PERSON_ORGANIZATION ( #168, #156, #152 ) ;
#118 = DATE_AND_TIME ( #217, #145 ) ;
#119 = ORIENTED_EDGE ( 'NONE', *, *, #143, .T. ) ;
#120 = COORDINATED_UNIVERSAL_TIME_OFFSET ( 1, 0, .AHEAD. ) ;
#121 = CONICAL_SURFACE ( 'NONE', #84, 0.8649999999999935518, 1.029744258676649871 ) ;
#122 = SECURITY_CLASSIFICATION ( '', '', #150 ) ;
#123 = DATE_AND_TIME ( #55, #190 ) ;
#124 = DIRECTION ( 'NONE',  ( -4.275831445896958607E-31, -1.000000000000000000, -1.224646799147353207E-16 ) ) ;
#125 = FACE_OUTER_BOUND ( 'NONE', #50, .T. ) ;
#126 = CC_DESIGN_PERSON_AND_ORGANIZATION_ASSIGNMENT ( #64, #81, ( #212 ) ) ;
#127 = CARTESIAN_POINT ( 'NONE',  ( 4.189777606611760026E-14, -1.469576158976823947E-15, 12.00000000000000000 ) ) ;
#128 = CYLINDRICAL_SURFACE ( 'NONE', #214, 0.8649999999999937739 ) ;
#129 = CARTESIAN_POINT ( 'NONE',  ( 4.271417818091253274E-14, -1.498211690422396986E-15, 12.23382685902180533 ) ) ;
#130 = COORDINATED_UNIVERSAL_TIME_OFFSET ( 1, 0, .AHEAD. ) ;
#131 = MANIFOLD_SOLID_BREP ( 'Corps-Déplacer/Copier1[2]', #63 ) ;
#132 = LOCAL_TIME ( 15, 48, 1.000000000000000000, #201 ) ;
#133 = PERSON_AND_ORGANIZATION ( #8, #23 ) ;
#134 = PERSON_AND_ORGANIZATION ( #8, #23 ) ;
#135 = PERSON_AND_ORGANIZATION_ROLE ( 'creator' ) ;
#136 = DIRECTION ( 'NONE',  ( -3.491481338843133355E-15, 1.224646799147353207E-16, -1.000000000000000000 ) ) ;
#137 = UNCERTAINTY_MEASURE_WITH_UNIT (LENGTH_MEASURE( 1.000000000000000082E-05 ), #189, 'distance_accuracy_value', 'NONE');
#138 = PRODUCT ( '43415', '43415', '', ( #215 ) ) ;
#139 = CARTESIAN_POINT ( 'NONE',  ( 4.271417818091253274E-14, -1.498211690422396986E-15, 12.23382685902180533 ) ) ;
#140 = EDGE_LOOP ( 'NONE', ( #75 ) ) ;
#141 = AXIS2_PLACEMENT_3D ( 'NONE', #127, #192, #1 ) ;
#142 = CARTESIAN_POINT ( 'NONE',  ( 1.319779946082704535E-13, 0.9999999999999963363, 37.79999999999999716 ) ) ;
#143 = EDGE_CURVE ( 'NONE', #68, #68, #181, .T. ) ;
#144 = DIRECTION ( 'NONE',  ( 3.491481338843133355E-15, -1.224646799147353207E-16, 1.000000000000000000 ) ) ;
#145 = LOCAL_TIME ( 15, 48, 1.000000000000000000, #130 ) ;
#146 = FACE_OUTER_BOUND ( 'NONE', #12, .T. ) ;
#147 = FACE_OUTER_BOUND ( 'NONE', #116, .T. ) ;
#148 = APPROVAL_STATUS ( 'not_yet_approved' ) ;
#149 = APPROVAL_PERSON_ORGANIZATION ( #134, #5, #97 ) ;
#150 = SECURITY_CLASSIFICATION_LEVEL ( 'unclassified' ) ;
#151 = CC_DESIGN_PERSON_AND_ORGANIZATION_ASSIGNMENT ( #213, #135, ( #58 ) ) ;
#152 = APPROVAL_ROLE ( '' ) ;
#153 = ORIENTED_EDGE ( 'NONE', *, *, #73, .T. ) ;
#154 = ORIENTED_EDGE ( 'NONE', *, *, #30, .T. ) ;
#155 = AXIS2_PLACEMENT_3D ( 'NONE', #180, #158, #178 ) ;
#156 = APPROVAL ( #148, 'UNSPECIFIED' ) ;
#157 = DIRECTION ( 'NONE',  ( -4.275831445896958607E-31, -1.000000000000000000, -1.224646799147353207E-16 ) ) ;
#158 = DIRECTION ( 'NONE',  ( -3.491481338843133355E-15, 1.224646799147353207E-16, -1.000000000000000000 ) ) ;
#159 = PLANE ( 'NONE',  #198 ) ;
#160 = CIRCLE ( 'NONE', #155, 0.8649999999999939959 ) ;
#161 = AXIS2_PLACEMENT_3D ( 'NONE', #184, #67, #43 ) ;
#162 = FACE_OUTER_BOUND ( 'NONE', #36, .T. ) ;
#163 = DIRECTION ( 'NONE',  ( -3.491481338843133355E-15, 1.224646799147353207E-16, -1.000000000000000000 ) ) ;
#164 = DATE_AND_TIME ( #83, #132 ) ;
#165 = APPLICATION_CONTEXT ( 'configuration controlled 3d designs of mechanical parts and assemblies' ) ;
#166 = ADVANCED_FACE ( 'NONE', ( #211 ), #159, .F. ) ;
#167 = AXIS2_PLACEMENT_3D ( 'NONE', #91, #59, #209 ) ;
#168 = PERSON_AND_ORGANIZATION ( #8, #23 ) ;
#169 = APPROVAL_STATUS ( 'not_yet_approved' ) ;
#170 = COORDINATED_UNIVERSAL_TIME_OFFSET ( 1, 0, .AHEAD. ) ;
#171 = CC_DESIGN_PERSON_AND_ORGANIZATION_ASSIGNMENT ( #133, #200, ( #122 ) ) ;
#172 = CIRCLE ( 'NONE', #66, 0.8000000000000010436 ) ;
#173 = EDGE_LOOP ( 'NONE', ( #218 ) ) ;
#174 = APPROVAL_DATE_TIME ( #123, #52 ) ;
#175 = EDGE_LOOP ( 'NONE', ( #154 ) ) ;
#176 = CARTESIAN_POINT ( 'NONE',  ( 1.814677997372104054E-15, -6.365033592593182078E-17, 0.5197444354588413029 ) ) ;
#177 = AXIS2_PLACEMENT_3D ( 'NONE', #100, #136, #71 ) ;
#178 = DIRECTION ( 'NONE',  ( 0.0000000000000000000, 1.000000000000000000, 0.0000000000000000000 ) ) ;
#179 = DIRECTION ( 'NONE',  ( -4.453017212456070133E-31, -1.000000000000000000, -1.253412916168222642E-16 ) ) ;
#180 = CARTESIAN_POINT ( 'NONE',  ( 4.189777606611760026E-14, -1.469576158976823947E-15, 12.00000000000000000 ) ) ;
#181 = CIRCLE ( 'NONE', #74, 0.8649999999999935518 ) ;
#182 = CC_DESIGN_APPROVAL ( #5, ( #212 ) ) ;
#183 = CARTESIAN_POINT ( 'NONE',  ( 4.271417818091253274E-14, 0.9999999999999954481, 12.23382685902180533 ) ) ;
#184 = CARTESIAN_POINT ( 'NONE',  ( 0.0000000000000000000, 0.0000000000000000000, 0.0000000000000000000 ) ) ;
#185 = AXIS2_PLACEMENT_3D ( 'NONE', #38, #94, #6 ) ;
#186 = AXIS2_PLACEMENT_3D ( 'NONE', #24, #210, #207 ) ;
#187 = CC_DESIGN_SECURITY_CLASSIFICATION ( #122, ( #58 ) ) ;
#188 = APPROVAL_DATE_TIME ( #9, #156 ) ;
#189 =( LENGTH_UNIT ( ) NAMED_UNIT ( * ) SI_UNIT ( .MILLI., .METRE. ) );
#190 = LOCAL_TIME ( 15, 48, 1.000000000000000000, #120 ) ;
#191 = CC_DESIGN_DATE_AND_TIME_ASSIGNMENT ( #118, #33, ( #122 ) ) ;
#192 = DIRECTION ( 'NONE',  ( -3.491481338843133355E-15, 1.224646799147353207E-16, -1.000000000000000000 ) ) ;
#193 = CARTESIAN_POINT ( 'NONE',  ( 1.326762908760390423E-13, 0.7999999999999963807, 38.00000000000000000 ) ) ;
#194 = CIRCLE ( 'NONE', #186, 1.000000000000000888 ) ;
#195 = DIRECTION ( 'NONE',  ( -3.491481338843133355E-15, 1.224646799147353207E-16, -1.000000000000000000 ) ) ;
#196 = CARTESIAN_POINT ( 'NONE',  ( 0.0000000000000000000, 0.0000000000000000000, 0.0000000000000000000 ) ) ;
#197 = DIRECTION ( 'NONE',  ( -3.491481338843133355E-15, 1.224646799147353207E-16, -1.000000000000000000 ) ) ;
#198 = AXIS2_PLACEMENT_3D ( 'NONE', #3, #89, #157 ) ;
#199 = ADVANCED_FACE ( 'NONE', ( #125, #146 ), #128, .T. ) ;
#200 = PERSON_AND_ORGANIZATION_ROLE ( 'classification_officer' ) ;
#201 = COORDINATED_UNIVERSAL_TIME_OFFSET ( 1, 0, .AHEAD. ) ;
#202 = MANIFOLD_SOLID_BREP ( 'Corps-Déplacer/Copier1[1]', #16 ) ;
#203 = EDGE_LOOP ( 'NONE', ( #219 ) ) ;
#204 = CC_DESIGN_APPROVAL ( #52, ( #122 ) ) ;
#205 = APPLICATION_PROTOCOL_DEFINITION ( 'international standard', 'config_control_design', 1994, #165 ) ;
#206 = CONICAL_SURFACE ( 'NONE', #10, 0.9999999999999970024, 0.5235987755982970393 ) ;
#207 = DIRECTION ( 'NONE',  ( 0.0000000000000000000, 1.000000000000000000, 0.0000000000000000000 ) ) ;
#208 = VERTEX_POINT ( 'NONE', #28 ) ;
#209 = DIRECTION ( 'NONE',  ( 0.0000000000000000000, 1.000000000000000000, 0.0000000000000000000 ) ) ;
#210 = DIRECTION ( 'NONE',  ( -3.491481338843133355E-15, 1.224646799147353207E-16, -1.000000000000000000 ) ) ;
#211 = FACE_OUTER_BOUND ( 'NONE', #140, .T. ) ;
#212 = PRODUCT_DEFINITION ( 'UNKNOWN', '', #58, #85 ) ;
#213 = PERSON_AND_ORGANIZATION ( #8, #23 ) ;
#214 = AXIS2_PLACEMENT_3D ( 'NONE', #196, #79, #61 ) ;
#215 = MECHANICAL_CONTEXT ( 'NONE', #114, 'mechanical' ) ;
#216 = AXIS2_PLACEMENT_3D ( 'NONE', #139, #163, #40 ) ;
#217 = CALENDAR_DATE ( 2021, 7, 10 ) ;
#218 = ORIENTED_EDGE ( 'NONE', *, *, #107, .F. ) ;
#219 = ORIENTED_EDGE ( 'NONE', *, *, #73, .F. ) ;
#220 = ORIENTED_EDGE ( 'NONE', *, *, #30, .F. ) ;
#221 = ORIENTED_EDGE ( 'NONE', *, *, #92, .F. ) ;
#222 = ADVANCED_FACE ( 'NONE', ( #106 ), #41, .T. ) ;
#223 = VERTEX_POINT ( 'NONE', #80 ) ;
ENDSEC;
END-ISO-10303-21;
