ISO-10303-21;
HEADER;
FILE_DESCRIPTION (( 'STEP AP203' ),
    '1' );
FILE_NAME ('43409.step',
    '2021-11-01T10:35:19',
    ( '' ),
    ( '' ),
    'SwSTEP 2.0',
    'SolidWorks 2019',
    '' );
FILE_SCHEMA (( 'CONFIG_CONTROL_DESIGN' ));
ENDSEC;

DATA;
#1 = EDGE_CURVE ( 'NONE', #159, #159, #56, .T. ) ;
#2 = CARTESIAN_POINT ( 'NONE',  ( -2.398394247531772770E-30, -2.800000000000002043, -6.869274141177154552E-16 ) ) ;
#3 = ORIENTED_EDGE ( 'NONE', *, *, #1, .F. ) ;
#4 = CARTESIAN_POINT ( 'NONE',  ( 2.185667318115801102E-13, 3.999999999999991562, 62.59999999999998721 ) ) ;
#5 = MANIFOLD_SOLID_BREP ( 'Corps-Déplacer/Copier1[2]', #184 ) ;
#6 = EDGE_LOOP ( 'NONE', ( #78 ) ) ;
#7 = APPLICATION_PROTOCOL_DEFINITION ( 'international standard', 'config_control_design', 1994, #34 ) ;
#8 = EDGE_LOOP ( 'NONE', ( #103 ) ) ;
#9 = CONICAL_SURFACE ( 'NONE', #168, 3.000000000000000000, 0.7853981633974437271 ) ;
#10 = APPROVAL_PERSON_ORGANIZATION ( #12, #181, #52 ) ;
#11 = DIRECTION ( 'NONE',  ( 3.491481338843133355E-15, -1.224646799147353207E-16, 1.000000000000000000 ) ) ;
#12 = PERSON_AND_ORGANIZATION ( #97, #228 ) ;
#13 = PLANE ( 'NONE',  #227 ) ;
#14 = APPLICATION_CONTEXT ( 'configuration controlled 3d designs of mechanical parts and assemblies' ) ;
#15 = CYLINDRICAL_SURFACE ( 'NONE', #230, 2.999999999999998224 ) ;
#16 = ADVANCED_FACE ( 'NONE', ( #238 ), #13, .F. ) ;
#17 = DIRECTION ( 'NONE',  ( -3.491481338843133355E-15, 1.224646799147353207E-16, -1.000000000000000000 ) ) ;
#18 = DATE_AND_TIME ( #94, #113 ) ;
#19 = PRODUCT_RELATED_PRODUCT_CATEGORY ( 'detail', '', ( #217 ) ) ;
#20 = AXIS2_PLACEMENT_3D ( 'NONE', #81, #85, #142 ) ;
#21 = ORIENTED_EDGE ( 'NONE', *, *, #1, .T. ) ;
#22 = ORIENTED_EDGE ( 'NONE', *, *, #128, .T. ) ;
#23 = CIRCLE ( 'NONE', #171, 3.000000000000000000 ) ;
#24 = DIRECTION ( 'NONE',  ( 0.0000000000000000000, -1.000000000000000000, 0.0000000000000000000 ) ) ;
#25 = DIRECTION ( 'NONE',  ( -3.491481338843133355E-15, 1.224646799147353207E-16, -1.000000000000000000 ) ) ;
#26 = EDGE_LOOP ( 'NONE', ( #22 ) ) ;
#27 = DIRECTION ( 'NONE',  ( 3.491481338843133355E-15, -1.226656096638776648E-16, 1.000000000000000000 ) ) ;
#28 = DATE_AND_TIME ( #137, #91 ) ;
#29 = DIRECTION ( 'NONE',  ( 3.491481338843133355E-15, -1.224646799147353207E-16, 1.000000000000000000 ) ) ;
#30 = COORDINATED_UNIVERSAL_TIME_OFFSET ( 1, 0, .AHEAD. ) ;
#31 = FACE_OUTER_BOUND ( 'NONE', #80, .T. ) ;
#32 = DIRECTION ( 'NONE',  ( -4.282846870592449122E-31, -1.000000000000000000, -1.226656096638776648E-16 ) ) ;
#33 = FACE_OUTER_BOUND ( 'NONE', #153, .T. ) ;
#34 = APPLICATION_CONTEXT ( 'configuration controlled 3d designs of mechanical parts and assemblies' ) ;
#35 = CC_DESIGN_APPROVAL ( #82, ( #156 ) ) ;
#36 = CC_DESIGN_PERSON_AND_ORGANIZATION_ASSIGNMENT ( #132, #49, ( #67 ) ) ;
#37 = DIRECTION ( 'NONE',  ( 0.0000000000000000000, 1.000000000000000000, 0.0000000000000000000 ) ) ;
#38 = ORIENTED_EDGE ( 'NONE', *, *, #194, .T. ) ;
#39 = VERTEX_POINT ( 'NONE', #198 ) ;
#40 = CLOSED_SHELL ( 'NONE', ( #114, #219, #112, #54, #134 ) ) ;
#41 = AXIS2_PLACEMENT_3D ( 'NONE', #57, #43, #104 ) ;
#42 = VERTEX_POINT ( 'NONE', #2 ) ;
#43 = DIRECTION ( 'NONE',  ( -3.491481338843133355E-15, 1.227517819005651059E-16, -1.000000000000000000 ) ) ;
#44 = DIRECTION ( 'NONE',  ( 4.275831445896957731E-31, 1.000000000000000000, 1.224646799147353207E-16 ) ) ;
#45 = EDGE_CURVE ( 'NONE', #39, #39, #23, .T. ) ;
#46 = CARTESIAN_POINT ( 'NONE',  ( 2.199633243471174140E-13, -7.715274834628325378E-15, 63.00000000000000000 ) ) ;
#47 = PERSON_AND_ORGANIZATION ( #97, #228 ) ;
#48 = FACE_OUTER_BOUND ( 'NONE', #58, .T. ) ;
#49 = PERSON_AND_ORGANIZATION_ROLE ( 'creator' ) ;
#50 = CARTESIAN_POINT ( 'NONE',  ( 0.0000000000000000000, 0.0000000000000000000, 0.0000000000000000000 ) ) ;
#51 = PRODUCT_DEFINITION_FORMATION_WITH_SPECIFIED_SOURCE ( 'ANY', '', #217, .NOT_KNOWN. ) ;
#52 = APPROVAL_ROLE ( '' ) ;
#53 = AXIS2_PLACEMENT_3D ( 'NONE', #205, #29, #224 ) ;
#54 = ADVANCED_FACE ( 'NONE', ( #31, #48 ), #73, .F. ) ;
#55 = ORIENTED_EDGE ( 'NONE', *, *, #229, .F. ) ;
#56 = CIRCLE ( 'NONE', #98, 2.999999999999998668 ) ;
#57 = CARTESIAN_POINT ( 'NONE',  ( 5.542022514505100631E-14, -2.210139082994980068E-15, 15.87298334620741080 ) ) ;
#58 = EDGE_LOOP ( 'NONE', ( #160 ) ) ;
#59 = APPROVAL_ROLE ( '' ) ;
#60 = PRODUCT_DEFINITION_SHAPE ( 'NONE', 'NONE',  #67 ) ;
#61 = CARTESIAN_POINT ( 'NONE',  ( 2.185667318115801102E-13, -7.666288962662430372E-15, 62.59999999999998721 ) ) ;
#62 = APPROVAL ( #201, 'UNSPECIFIED' ) ;
#63 = CIRCLE ( 'NONE', #41, 3.999999999999996447 ) ;
#64 = VERTEX_POINT ( 'NONE', #234 ) ;
#65 = VERTEX_POINT ( 'NONE', #119 ) ;
#66 = CARTESIAN_POINT ( 'NONE',  ( 2.199633243471174140E-13, 2.699567608791331104E-32, 63.00000000000000000 ) ) ;
#67 = PRODUCT_DEFINITION ( 'UNKNOWN', '', #51, #75 ) ;
#68 = COORDINATED_UNIVERSAL_TIME_OFFSET ( 1, 0, .AHEAD. ) ;
#69 = DIRECTION ( 'NONE',  ( 3.491481338843133355E-15, -1.224646799147353207E-16, 1.000000000000000000 ) ) ;
#70 = FACE_OUTER_BOUND ( 'NONE', #195, .T. ) ;
#71 = CALENDAR_DATE ( 2021, 1, 11 ) ;
#72 = DIRECTION ( 'NONE',  ( -4.172848212839010723E-31, -1.000000000000000000, -1.264902534566421922E-16 ) ) ;
#73 = TOROIDAL_SURFACE ( 'NONE', #211, 11.00000000000000000, 8.000000000000000000 ) ;
#74 = APPROVAL_PERSON_ORGANIZATION ( #108, #82, #129 ) ;
#75 = DESIGN_CONTEXT ( 'detailed design', #34, 'design' ) ;
#76 = CC_DESIGN_DATE_AND_TIME_ASSIGNMENT ( #210, #186, ( #156 ) ) ;
#77 = CIRCLE ( 'NONE', #135, 3.599999999999999201 ) ;
#78 = ORIENTED_EDGE ( 'NONE', *, *, #166, .F. ) ;
#79 = DIRECTION ( 'NONE',  ( 0.0000000000000000000, 1.000000000000000000, 0.0000000000000000000 ) ) ;
#80 = EDGE_LOOP ( 'NONE', ( #38 ) ) ;
#81 = CARTESIAN_POINT ( 'NONE',  ( 0.0000000000000000000, 0.0000000000000000000, 0.0000000000000000000 ) ) ;
#82 = APPROVAL ( #151, 'UNSPECIFIED' ) ;
#83 = VERTEX_POINT ( 'NONE', #180 ) ;
#84 = EDGE_LOOP ( 'NONE', ( #118 ) ) ;
#85 = DIRECTION ( 'NONE',  ( 0.0000000000000000000, 0.0000000000000000000, 1.000000000000000000 ) ) ;
#86 = DIRECTION ( 'NONE',  ( -4.275831445896958607E-31, -1.000000000000000000, -1.224646799147353207E-16 ) ) ;
#87 = ADVANCED_FACE ( 'NONE', ( #109, #70 ), #9, .T. ) ;
#88 = CYLINDRICAL_SURFACE ( 'NONE', #190, 3.999999999999996447 ) ;
#89 = PERSON_AND_ORGANIZATION_ROLE ( 'creator' ) ;
#90 = CARTESIAN_POINT ( 'NONE',  ( -6.413731847436034514E-31, 0.0000000000000000000, -1.836965810494968570E-16 ) ) ;
#91 = LOCAL_TIME ( 11, 35, 19.00000000000000000, #212 ) ;
#92 = CARTESIAN_POINT ( 'NONE',  ( -1.199197123765886210E-30, 1.553232092642325359E-32, -3.434637070588577276E-16 ) ) ;
#93 = SHAPE_DEFINITION_REPRESENTATION ( #60, #172 ) ;
#94 = CALENDAR_DATE ( 2021, 1, 11 ) ;
#95 = CIRCLE ( 'NONE', #216, 3.999999999999999112 ) ;
#96 = CC_DESIGN_PERSON_AND_ORGANIZATION_ASSIGNMENT ( #47, #149, ( #156 ) ) ;
#97 = PERSON ( 'UNSPECIFIED', 'UNSPECIFIED', 'UNSPECIFIED', ('UNSPECIFIED'), ('UNSPECIFIED'), ('UNSPECIFIED') ) ;
#98 = AXIS2_PLACEMENT_3D ( 'NONE', #158, #170, #150 ) ;
#99 = CC_DESIGN_DATE_AND_TIME_ASSIGNMENT ( #146, #209, ( #67 ) ) ;
#100 = EDGE_LOOP ( 'NONE', ( #199 ) ) ;
#101 = UNCERTAINTY_MEASURE_WITH_UNIT (LENGTH_MEASURE( 1.000000000000000082E-05 ), #182, 'distance_accuracy_value', 'NONE');
#102 = FACE_BOUND ( 'NONE', #213, .T. ) ;
#103 = ORIENTED_EDGE ( 'NONE', *, *, #166, .T. ) ;
#104 = DIRECTION ( 'NONE',  ( 0.0000000000000000000, 1.000000000000000000, 0.0000000000000000000 ) ) ;
#105 = DIRECTION ( 'NONE',  ( 3.491481338843133355E-15, -1.226656096638776648E-16, 1.000000000000000000 ) ) ;
#106 = COORDINATED_UNIVERSAL_TIME_OFFSET ( 1, 0, .AHEAD. ) ;
#107 = CARTESIAN_POINT ( 'NONE',  ( 4.189777606611759395E-14, -1.734723475976807094E-15, 11.99999999999999822 ) ) ;
#108 = PERSON_AND_ORGANIZATION ( #97, #228 ) ;
#109 = FACE_BOUND ( 'NONE', #26, .T. ) ;
#110 = DIRECTION ( 'NONE',  ( 3.491481338843133355E-15, -1.227517819005651059E-16, 1.000000000000000000 ) ) ;
#111 = CIRCLE ( 'NONE', #140, 2.999999999999998668 ) ;
#112 = ADVANCED_FACE ( 'NONE', ( #183 ), #200, .F. ) ;
#113 = LOCAL_TIME ( 11, 35, 19.00000000000000000, #225 ) ;
#114 = ADVANCED_FACE ( 'NONE', ( #221, #33 ), #88, .T. ) ;
#115 = ADVANCED_FACE ( 'NONE', ( #125 ), #165, .T. ) ;
#116 = AXIS2_PLACEMENT_3D ( 'NONE', #92, #127, #32 ) ;
#117 =( GEOMETRIC_REPRESENTATION_CONTEXT ( 3 ) GLOBAL_UNCERTAINTY_ASSIGNED_CONTEXT ( ( #101 ) ) GLOBAL_UNIT_ASSIGNED_CONTEXT ( ( #182, #154, #139 ) ) REPRESENTATION_CONTEXT ( 'NONE', 'WORKASPACE' ) );
#118 = ORIENTED_EDGE ( 'NONE', *, *, #147, .F. ) ;
#119 = CARTESIAN_POINT ( 'NONE',  ( 4.189777606611759395E-14, -3.000000000000000000, 11.99999999999999822 ) ) ;
#120 = ORIENTED_EDGE ( 'NONE', *, *, #194, .F. ) ;
#121 = FACE_OUTER_BOUND ( 'NONE', #6, .T. ) ;
#122 = APPROVAL_DATE_TIME ( #28, #62 ) ;
#123 = CARTESIAN_POINT ( 'NONE',  ( 4.189777606611759395E-14, -3.000000000000000000, 11.99999999999999822 ) ) ;
#124 = ORIENTED_EDGE ( 'NONE', *, *, #147, .T. ) ;
#125 = FACE_OUTER_BOUND ( 'NONE', #174, .T. ) ;
#126 = DIRECTION ( 'NONE',  ( 0.0000000000000000000, 1.000000000000000000, 0.0000000000000000000 ) ) ;
#127 = DIRECTION ( 'NONE',  ( 3.491481338843133355E-15, -1.226656096638776648E-16, 1.000000000000000000 ) ) ;
#128 = EDGE_CURVE ( 'NONE', #42, #42, #197, .T. ) ;
#129 = APPROVAL_ROLE ( '' ) ;
#130 = FACE_OUTER_BOUND ( 'NONE', #155, .T. ) ;
#131 = AXIS2_PLACEMENT_3D ( 'NONE', #141, #176, #79 ) ;
#132 = PERSON_AND_ORGANIZATION ( #97, #228 ) ;
#133 = APPROVAL_DATE_TIME ( #192, #181 ) ;
#134 = ADVANCED_FACE ( 'NONE', ( #130 ), #187, .F. ) ;
#135 = AXIS2_PLACEMENT_3D ( 'NONE', #46, #189, #126 ) ;
#136 = CC_DESIGN_PERSON_AND_ORGANIZATION_ASSIGNMENT ( #167, #240, ( #51 ) ) ;
#137 = CALENDAR_DATE ( 2021, 1, 11 ) ;
#138 = EDGE_LOOP ( 'NONE', ( #3 ) ) ;
#139 =( NAMED_UNIT ( * ) SI_UNIT ( $, .STERADIAN. ) SOLID_ANGLE_UNIT ( ) );
#140 = AXIS2_PLACEMENT_3D ( 'NONE', #235, #175, #24 ) ;
#141 = CARTESIAN_POINT ( 'NONE',  ( 2.199633243471174140E-13, -7.715274834628325378E-15, 63.00000000000000000 ) ) ;
#142 = DIRECTION ( 'NONE',  ( 1.000000000000000000, 0.0000000000000000000, 0.0000000000000000000 ) ) ;
#143 = DIRECTION ( 'NONE',  ( -3.491481338843133355E-15, 1.224646799147353207E-16, -1.000000000000000000 ) ) ;
#144 = DIRECTION ( 'NONE',  ( -4.275831445896958607E-31, -1.000000000000000000, -1.224646799147353207E-16 ) ) ;
#145 = CC_DESIGN_APPROVAL ( #181, ( #51 ) ) ;
#146 = DATE_AND_TIME ( #203, #193 ) ;
#147 = EDGE_CURVE ( 'NONE', #83, #83, #77, .T. ) ;
#148 = CARTESIAN_POINT ( 'NONE',  ( 6.982962677686247975E-16, -2.453312193277549474E-17, 0.1999999999999994560 ) ) ;
#149 = PERSON_AND_ORGANIZATION_ROLE ( 'classification_officer' ) ;
#150 = DIRECTION ( 'NONE',  ( 0.0000000000000000000, -1.000000000000000000, 0.0000000000000000000 ) ) ;
#151 = APPROVAL_STATUS ( 'not_yet_approved' ) ;
#152 = LOCAL_TIME ( 11, 35, 19.00000000000000000, #106 ) ;
#153 = EDGE_LOOP ( 'NONE', ( #55 ) ) ;
#154 =( NAMED_UNIT ( * ) PLANE_ANGLE_UNIT ( ) SI_UNIT ( $, .RADIAN. ) );
#155 = EDGE_LOOP ( 'NONE', ( #120 ) ) ;
#156 = SECURITY_CLASSIFICATION ( '', '', #242 ) ;
#157 = PERSON_AND_ORGANIZATION ( #97, #228 ) ;
#158 = CARTESIAN_POINT ( 'NONE',  ( 4.189777606611759395E-14, -1.473021382806781073E-15, 11.99999999999999822 ) ) ;
#159 = VERTEX_POINT ( 'NONE', #123 ) ;
#160 = ORIENTED_EDGE ( 'NONE', *, *, #229, .T. ) ;
#161 = AXIS2_PLACEMENT_3D ( 'NONE', #66, #143, #226 ) ;
#162 = ADVANCED_FACE ( 'NONE', ( #207, #188 ), #15, .T. ) ;
#163 = APPROVAL_PERSON_ORGANIZATION ( #215, #62, #59 ) ;
#164 = CARTESIAN_POINT ( 'NONE',  ( -1.068953943006579689E-30, 3.749385712520244906E-32, -3.061605774930954197E-16 ) ) ;
#165 = PLANE ( 'NONE',  #53 ) ;
#166 = EDGE_CURVE ( 'NONE', #196, #196, #95, .T. ) ;
#167 = PERSON_AND_ORGANIZATION ( #97, #228 ) ;
#168 = AXIS2_PLACEMENT_3D ( 'NONE', #236, #27, #204 ) ;
#169 = PERSON_AND_ORGANIZATION ( #97, #228 ) ;
#170 = DIRECTION ( 'NONE',  ( 3.491481338843133355E-15, -1.227517819005651059E-16, 1.000000000000000000 ) ) ;
#171 = AXIS2_PLACEMENT_3D ( 'NONE', #148, #105, #72 ) ;
#172 = ADVANCED_BREP_SHAPE_REPRESENTATION ( '43409', ( #173, #5, #20 ), #117 ) ;
#173 = MANIFOLD_SOLID_BREP ( 'Corps-Déplacer/Copier1[1]', #40 ) ;
#174 = EDGE_LOOP ( 'NONE', ( #21 ) ) ;
#175 = DIRECTION ( 'NONE',  ( 3.491481338843133355E-15, -1.227517819005651059E-16, 1.000000000000000000 ) ) ;
#176 = DIRECTION ( 'NONE',  ( -3.491481338843133355E-15, 1.224646799147353207E-16, -1.000000000000000000 ) ) ;
#177 = EDGE_LOOP ( 'NONE', ( #232 ) ) ;
#178 = CC_DESIGN_SECURITY_CLASSIFICATION ( #156, ( #51 ) ) ;
#179 = APPLICATION_PROTOCOL_DEFINITION ( 'international standard', 'config_control_design', 1994, #14 ) ;
#180 = CARTESIAN_POINT ( 'NONE',  ( 2.199633243471174140E-13, 3.599999999999991207, 63.00000000000000000 ) ) ;
#181 = APPROVAL ( #223, 'UNSPECIFIED' ) ;
#182 =( LENGTH_UNIT ( ) NAMED_UNIT ( * ) SI_UNIT ( .MILLI., .METRE. ) );
#183 = FACE_OUTER_BOUND ( 'NONE', #84, .T. ) ;
#184 = CLOSED_SHELL ( 'NONE', ( #162, #115, #87, #16 ) ) ;
#185 = CC_DESIGN_APPROVAL ( #62, ( #67 ) ) ;
#186 = DATE_TIME_ROLE ( 'classification_date' ) ;
#187 = PLANE ( 'NONE',  #202 ) ;
#188 = FACE_OUTER_BOUND ( 'NONE', #177, .T. ) ;
#189 = DIRECTION ( 'NONE',  ( -3.491481338843133355E-15, 1.224646799147353207E-16, -1.000000000000000000 ) ) ;
#190 = AXIS2_PLACEMENT_3D ( 'NONE', #50, #17, #44 ) ;
#191 = CALENDAR_DATE ( 2021, 1, 11 ) ;
#192 = DATE_AND_TIME ( #71, #152 ) ;
#193 = LOCAL_TIME ( 11, 35, 19.00000000000000000, #30 ) ;
#194 = EDGE_CURVE ( 'NONE', #65, #65, #111, .T. ) ;
#195 = EDGE_LOOP ( 'NONE', ( #231 ) ) ;
#196 = VERTEX_POINT ( 'NONE', #4 ) ;
#197 = CIRCLE ( 'NONE', #116, 2.800000000000002043 ) ;
#198 = CARTESIAN_POINT ( 'NONE',  ( 6.982962677686236142E-16, -3.000000000000000000, 0.1999999999999990952 ) ) ;
#199 = ORIENTED_EDGE ( 'NONE', *, *, #128, .F. ) ;
#200 = PLANE ( 'NONE',  #161 ) ;
#201 = APPROVAL_STATUS ( 'not_yet_approved' ) ;
#202 = AXIS2_PLACEMENT_3D ( 'NONE', #237, #69, #144 ) ;
#203 = CALENDAR_DATE ( 2021, 1, 11 ) ;
#204 = DIRECTION ( 'NONE',  ( -4.172848212839010723E-31, -1.000000000000000000, -1.264902534566421922E-16 ) ) ;
#205 = CARTESIAN_POINT ( 'NONE',  ( 4.189777606611760026E-14, 2.999519565323707552E-32, 12.00000000000000000 ) ) ;
#206 = APPROVAL_DATE_TIME ( #18, #82 ) ;
#207 = FACE_OUTER_BOUND ( 'NONE', #138, .T. ) ;
#208 = CONICAL_SURFACE ( 'NONE', #131, 3.599999999999999201, 0.7853981633974341792 ) ;
#209 = DATE_TIME_ROLE ( 'creation_date' ) ;
#210 = DATE_AND_TIME ( #191, #239 ) ;
#211 = AXIS2_PLACEMENT_3D ( 'NONE', #107, #241, #222 ) ;
#212 = COORDINATED_UNIVERSAL_TIME_OFFSET ( 1, 0, .AHEAD. ) ;
#213 = EDGE_LOOP ( 'NONE', ( #124 ) ) ;
#214 = CC_DESIGN_PERSON_AND_ORGANIZATION_ASSIGNMENT ( #157, #233, ( #217 ) ) ;
#215 = PERSON_AND_ORGANIZATION ( #97, #228 ) ;
#216 = AXIS2_PLACEMENT_3D ( 'NONE', #61, #25, #37 ) ;
#217 = PRODUCT ( '43409', '43409', '', ( #220 ) ) ;
#218 = DIRECTION ( 'NONE',  ( -4.285855558155653280E-31, -1.000000000000000000, -1.227517819005651059E-16 ) ) ;
#219 = ADVANCED_FACE ( 'NONE', ( #121, #102 ), #208, .T. ) ;
#220 = MECHANICAL_CONTEXT ( 'NONE', #14, 'mechanical' ) ;
#221 = FACE_OUTER_BOUND ( 'NONE', #8, .T. ) ;
#222 = DIRECTION ( 'NONE',  ( -4.341761441109884702E-31, -1.000000000000000000, -1.227517819005651059E-16 ) ) ;
#223 = APPROVAL_STATUS ( 'not_yet_approved' ) ;
#224 = DIRECTION ( 'NONE',  ( -4.275831445896958607E-31, -1.000000000000000000, -1.224646799147353207E-16 ) ) ;
#225 = COORDINATED_UNIVERSAL_TIME_OFFSET ( 1, 0, .AHEAD. ) ;
#226 = DIRECTION ( 'NONE',  ( 4.275831445896958607E-31, 1.000000000000000000, 1.224646799147353207E-16 ) ) ;
#227 = AXIS2_PLACEMENT_3D ( 'NONE', #164, #11, #86 ) ;
#228 = ORGANIZATION ( 'UNSPECIFIED', 'UNSPECIFIED', '' ) ;
#229 = EDGE_CURVE ( 'NONE', #64, #64, #63, .T. ) ;
#230 = AXIS2_PLACEMENT_3D ( 'NONE', #90, #110, #218 ) ;
#231 = ORIENTED_EDGE ( 'NONE', *, *, #45, .F. ) ;
#232 = ORIENTED_EDGE ( 'NONE', *, *, #45, .T. ) ;
#233 = PERSON_AND_ORGANIZATION_ROLE ( 'design_owner' ) ;
#234 = CARTESIAN_POINT ( 'NONE',  ( 5.542022514505100631E-14, 3.999999999999994227, 15.87298334620741080 ) ) ;
#235 = CARTESIAN_POINT ( 'NONE',  ( 4.189777606611759395E-14, -1.473021382806781073E-15, 11.99999999999999822 ) ) ;
#236 = CARTESIAN_POINT ( 'NONE',  ( 6.982962677686247975E-16, -2.453312193277549474E-17, 0.1999999999999994560 ) ) ;
#237 = CARTESIAN_POINT ( 'NONE',  ( 4.189777606611760026E-14, 2.999519565323707552E-32, 12.00000000000000000 ) ) ;
#238 = FACE_OUTER_BOUND ( 'NONE', #100, .T. ) ;
#239 = LOCAL_TIME ( 11, 35, 19.00000000000000000, #68 ) ;
#240 = PERSON_AND_ORGANIZATION_ROLE ( 'design_supplier' ) ;
#241 = DIRECTION ( 'NONE',  ( 3.491481338843133355E-15, -1.227517819005651059E-16, 1.000000000000000000 ) ) ;
#242 = SECURITY_CLASSIFICATION_LEVEL ( 'unclassified' ) ;
#243 = CC_DESIGN_PERSON_AND_ORGANIZATION_ASSIGNMENT ( #169, #89, ( #51 ) ) ;
ENDSEC;
END-ISO-10303-21;
