ISO-10303-21;
HEADER;
FILE_DESCRIPTION (( 'STEP AP203' ),
    '1' );
FILE_NAME ('43357.step',
    '2021-09-02T13:22:53',
    ( '' ),
    ( '' ),
    'SwSTEP 2.0',
    'SolidWorks 2019',
    '' );
FILE_SCHEMA (( 'CONFIG_CONTROL_DESIGN' ));
ENDSEC;

DATA;
#1 = EDGE_CURVE ( 'NONE', #75, #69, #78, .T. ) ;
#2 = CARTESIAN_POINT ( 'NONE',  ( 5.978996869954357394E-15, -2.097149796403542955E-16, 1.712452764228559854 ) ) ;
#3 = CIRCLE ( 'NONE', #183, 2.849999999999997424 ) ;
#4 = FACE_OUTER_BOUND ( 'NONE', #192, .T. ) ;
#5 = VECTOR ( 'NONE', #201, 999.9999999999998863 ) ;
#6 = CARTESIAN_POINT ( 'NONE',  ( 1.990144363140586139E-13, -6.980486755139912911E-15, 57.00000000000000000 ) ) ;
#7 = DIRECTION ( 'NONE',  ( -3.491481338843133355E-15, 1.224646799147353207E-16, -1.000000000000000000 ) ) ;
#8 = ORIENTED_EDGE ( 'NONE', *, *, #103, .F. ) ;
#9 = DIRECTION ( 'NONE',  ( -3.491481338843133355E-15, 1.224646799147353207E-16, -1.000000000000000000 ) ) ;
#10 = AXIS2_PLACEMENT_3D ( 'NONE', #6, #68, #314 ) ;
#11 = COORDINATED_UNIVERSAL_TIME_OFFSET ( 1, 0, .AHEAD. ) ;
#12 = FACE_OUTER_BOUND ( 'NONE', #73, .T. ) ;
#13 = CARTESIAN_POINT ( 'NONE',  ( 1.218611962080633089E-30, 2.849999999999999645, 3.490243377569956061E-16 ) ) ;
#14 = EDGE_CURVE ( 'NONE', #311, #281, #177, .T. ) ;
#15 = UNCERTAINTY_MEASURE_WITH_UNIT (LENGTH_MEASURE( 1.000000000000000082E-05 ), #247, 'distance_accuracy_value', 'NONE');
#16 = ADVANCED_FACE ( 'NONE', ( #219 ), #168, .T. ) ;
#17 = CARTESIAN_POINT ( 'NONE',  ( 6.328021207711353197E-15, 2.849999999999990763, 1.712452764228560298 ) ) ;
#18 = DIRECTION ( 'NONE',  ( 3.491481338843133355E-15, -1.224646799147353207E-16, 1.000000000000000000 ) ) ;
#19 = DIRECTION ( 'NONE',  ( 4.275831445896959482E-31, 1.000000000000000000, 1.224646799147353454E-16 ) ) ;
#20 = EDGE_CURVE ( 'NONE', #288, #282, #39, .T. ) ;
#21 = LOCAL_TIME ( 15, 22, 53.00000000000000000, #289 ) ;
#22 = EDGE_LOOP ( 'NONE', ( #273, #200, #335, #316 ) ) ;
#23 = ORIENTED_EDGE ( 'NONE', *, *, #327, .T. ) ;
#24 = EDGE_LOOP ( 'NONE', ( #195, #104, #139 ) ) ;
#25 = EDGE_LOOP ( 'NONE', ( #216, #51 ) ) ;
#26 = CARTESIAN_POINT ( 'NONE',  ( 1.990144363140586139E-13, -6.980486755139912911E-15, 57.00000000000000000 ) ) ;
#27 = ADVANCED_FACE ( 'NONE', ( #4 ), #199, .F. ) ;
#28 = DATE_AND_TIME ( #271, #66 ) ;
#29 = ORIENTED_EDGE ( 'NONE', *, *, #14, .T. ) ;
#30 = VECTOR ( 'NONE', #323, 1000.000000000000000 ) ;
#31 = VERTEX_POINT ( 'NONE', #276 ) ;
#32 = DIRECTION ( 'NONE',  ( -3.491481338843133355E-15, 1.224646799147353207E-16, -1.000000000000000000 ) ) ;
#33 = MANIFOLD_SOLID_BREP ( 'Corps-Déplacer/Copier1[1]', #128 ) ;
#34 = AXIS2_PLACEMENT_3D ( 'NONE', #55, #255, #35 ) ;
#35 = DIRECTION ( 'NONE',  ( -4.275831445896958607E-31, -1.000000000000000000, -1.224646799147353207E-16 ) ) ;
#36 = LINE ( 'NONE', #17, #5 ) ;
#37 = CC_DESIGN_PERSON_AND_ORGANIZATION_ASSIGNMENT ( #186, #228, ( #59 ) ) ;
#38 = ADVANCED_FACE ( 'NONE', ( #305 ), #166, .T. ) ;
#39 = CIRCLE ( 'NONE', #256, 2.250000000000001776 ) ;
#40 = CARTESIAN_POINT ( 'NONE',  ( 3.490243377569944228E-16, -2.849999999999999645, -3.490243377569968387E-16 ) ) ;
#41 = APPLICATION_CONTEXT ( 'configuration controlled 3d designs of mechanical parts and assemblies' ) ;
#42 = DIRECTION ( 'NONE',  ( 1.798245827342160317E-15, -0.8571673007021098911, 0.5150380749100582634 ) ) ;
#43 = AXIS2_PLACEMENT_3D ( 'NONE', #164, #159, #19 ) ;
#44 = EDGE_LOOP ( 'NONE', ( #283, #307, #175, #173 ) ) ;
#45 = LOCAL_TIME ( 15, 22, 53.00000000000000000, #242 ) ;
#46 = CARTESIAN_POINT ( 'NONE',  ( 5.978996869954357394E-15, -2.097149796403542955E-16, 1.712452764228559854 ) ) ;
#47 = DIRECTION ( 'NONE',  ( -3.491481338843133355E-15, 1.224646799147353207E-16, -1.000000000000000000 ) ) ;
#48 = ORIENTED_EDGE ( 'NONE', *, *, #14, .F. ) ;
#49 = CC_DESIGN_PERSON_AND_ORGANIZATION_ASSIGNMENT ( #94, #300, ( #193 ) ) ;
#50 = CARTESIAN_POINT ( 'NONE',  ( 1.990144363140586139E-13, 2.137157690293134775E-32, 57.00000000000000000 ) ) ;
#51 = ORIENTED_EDGE ( 'NONE', *, *, #143, .F. ) ;
#52 = CC_DESIGN_APPROVAL ( #131, ( #193 ) ) ;
#53 = DIRECTION ( 'NONE',  ( 0.0000000000000000000, 1.000000000000000000, 0.0000000000000000000 ) ) ;
#54 = FACE_OUTER_BOUND ( 'NONE', #188, .T. ) ;
#55 = CARTESIAN_POINT ( 'NONE',  ( 1.990144363140586139E-13, 2.137157690293134775E-32, 57.00000000000000000 ) ) ;
#56 = APPROVAL ( #330, 'UNSPECIFIED' ) ;
#57 = PERSON_AND_ORGANIZATION ( #269, #133 ) ;
#58 = AXIS2_PLACEMENT_3D ( 'NONE', #46, #140, #191 ) ;
#59 = SECURITY_CLASSIFICATION ( '', '', #265 ) ;
#60 = CALENDAR_DATE ( 2021, 2, 9 ) ;
#61 = CARTESIAN_POINT ( 'NONE',  ( 3.490243377569937326E-16, -2.849999999999993872, -3.490243377569960992E-16 ) ) ;
#62 = DIRECTION ( 'NONE',  ( -3.491481338843133355E-15, 1.224646799147353207E-16, -1.000000000000000000 ) ) ;
#63 = COORDINATED_UNIVERSAL_TIME_OFFSET ( 1, 0, .AHEAD. ) ;
#64 = PRODUCT_DEFINITION_SHAPE ( 'NONE', 'NONE',  #193 ) ;
#65 = PERSON_AND_ORGANIZATION ( #269, #133 ) ;
#66 = LOCAL_TIME ( 15, 22, 53.00000000000000000, #63 ) ;
#67 = DATE_AND_TIME ( #60, #241 ) ;
#68 = DIRECTION ( 'NONE',  ( -3.491481338843133355E-15, 1.224646799147353207E-16, -1.000000000000000000 ) ) ;
#69 = VERTEX_POINT ( 'NONE', #118 ) ;
#70 = AXIS2_PLACEMENT_3D ( 'NONE', #223, #7, #279 ) ;
#71 =( NAMED_UNIT ( * ) SI_UNIT ( $, .STERADIAN. ) SOLID_ANGLE_UNIT ( ) );
#72 = AXIS2_PLACEMENT_3D ( 'NONE', #130, #254, #81 ) ;
#73 = EDGE_LOOP ( 'NONE', ( #244, #301, #120, #48 ) ) ;
#74 = CC_DESIGN_DATE_AND_TIME_ASSIGNMENT ( #28, #88, ( #193 ) ) ;
#75 = VERTEX_POINT ( 'NONE', #96 ) ;
#76 =( NAMED_UNIT ( * ) PLANE_ANGLE_UNIT ( ) SI_UNIT ( $, .RADIAN. ) );
#77 = ORIENTED_EDGE ( 'NONE', *, *, #163, .F. ) ;
#78 = CIRCLE ( 'NONE', #324, 2.849999999999990763 ) ;
#79 = ORIENTED_EDGE ( 'NONE', *, *, #84, .T. ) ;
#80 = ADVANCED_FACE ( 'NONE', ( #214 ), #196, .T. ) ;
#81 = DIRECTION ( 'NONE',  ( 0.0000000000000000000, 1.000000000000000000, 0.0000000000000000000 ) ) ;
#82 = APPROVAL_STATUS ( 'not_yet_approved' ) ;
#83 = CARTESIAN_POINT ( 'NONE',  ( 2.611626803493389533E-13, -2.850000000000004530, 57.00000000000000000 ) ) ;
#84 = EDGE_CURVE ( 'NONE', #190, #311, #266, .T. ) ;
#85 = DIRECTION ( 'NONE',  ( -3.491481338843133355E-15, 1.224646799147353207E-16, -1.000000000000000000 ) ) ;
#86 = FACE_OUTER_BOUND ( 'NONE', #123, .T. ) ;
#87 = AXIS2_PLACEMENT_3D ( 'NONE', #239, #137, #295 ) ;
#88 = DATE_TIME_ROLE ( 'creation_date' ) ;
#89 = DIRECTION ( 'NONE',  ( 0.0000000000000000000, 1.000000000000000000, 0.0000000000000000000 ) ) ;
#90 = CC_DESIGN_PERSON_AND_ORGANIZATION_ASSIGNMENT ( #261, #91, ( #299 ) ) ;
#91 = PERSON_AND_ORGANIZATION_ROLE ( 'design_owner' ) ;
#92 = EDGE_CURVE ( 'NONE', #162, #274, #3, .T. ) ;
#93 = VECTOR ( 'NONE', #180, 1000.000000000000000 ) ;
#94 = PERSON_AND_ORGANIZATION ( #269, #133 ) ;
#95 = CYLINDRICAL_SURFACE ( 'NONE', #87, 2.849999999999993872 ) ;
#96 = CARTESIAN_POINT ( 'NONE',  ( 6.328021207711353197E-15, 2.849999999999990763, 1.712452764228560298 ) ) ;
#97 = ADVANCED_FACE ( 'NONE', ( #54 ), #138, .T. ) ;
#98 = ORIENTED_EDGE ( 'NONE', *, *, #20, .F. ) ;
#99 = VECTOR ( 'NONE', #134, 1000.000000000000000 ) ;
#100 = AXIS2_PLACEMENT_3D ( 'NONE', #152, #253, #206 ) ;
#101 = ORIENTED_EDGE ( 'NONE', *, *, #268, .F. ) ;
#102 = CARTESIAN_POINT ( 'NONE',  ( 3.247077645124113894E-13, -1.138921523207038456E-14, 93.00000000000000000 ) ) ;
#103 = EDGE_CURVE ( 'NONE', #69, #75, #122, .T. ) ;
#104 = ORIENTED_EDGE ( 'NONE', *, *, #163, .T. ) ;
#105 = CC_DESIGN_PERSON_AND_ORGANIZATION_ASSIGNMENT ( #110, #154, ( #117 ) ) ;
#106 = DIRECTION ( 'NONE',  ( 0.0000000000000000000, 1.000000000000000000, 0.0000000000000000000 ) ) ;
#107 = AXIS2_PLACEMENT_3D ( 'NONE', #227, #320, #53 ) ;
#108 = PLANE ( 'NONE',  #34 ) ;
#109 = CARTESIAN_POINT ( 'NONE',  ( 3.239726050445409912E-13, -2.250000000000013323, 93.00000000000000000 ) ) ;
#110 = PERSON_AND_ORGANIZATION ( #269, #133 ) ;
#111 = LINE ( 'NONE', #232, #93 ) ;
#112 = APPROVAL_PERSON_ORGANIZATION ( #322, #304, #264 ) ;
#113 = CARTESIAN_POINT ( 'NONE',  ( 0.0000000000000000000, 0.0000000000000000000, 0.0000000000000000000 ) ) ;
#114 = CARTESIAN_POINT ( 'NONE',  ( 1.990144363140586139E-13, -6.980486755139912911E-15, 57.00000000000000000 ) ) ;
#115 = DATE_AND_TIME ( #189, #21 ) ;
#116 = AXIS2_PLACEMENT_3D ( 'NONE', #50, #18, #135 ) ;
#117 = PRODUCT_DEFINITION_FORMATION_WITH_SPECIFIED_SOURCE ( 'ANY', '', #299, .NOT_KNOWN. ) ;
#118 = CARTESIAN_POINT ( 'NONE',  ( 5.978996869954355816E-15, -2.849999999999990763, 1.712452764228559410 ) ) ;
#119 = ORIENTED_EDGE ( 'NONE', *, *, #103, .T. ) ;
#120 = ORIENTED_EDGE ( 'NONE', *, *, #270, .T. ) ;
#121 = EDGE_LOOP ( 'NONE', ( #245, #79, #179, #250 ) ) ;
#122 = CIRCLE ( 'NONE', #306, 2.849999999999990763 ) ;
#123 = EDGE_LOOP ( 'NONE', ( #98, #278 ) ) ;
#124 = EDGE_CURVE ( 'NONE', #282, #288, #197, .T. ) ;
#125 = DIRECTION ( 'NONE',  ( 5.406119142139627312E-31, 1.000000000000000000, 1.521687259628783191E-16 ) ) ;
#126 = FACE_OUTER_BOUND ( 'NONE', #44, .T. ) ;
#127 = DIRECTION ( 'NONE',  ( 5.406119142139627312E-31, 1.000000000000000000, 1.521687259628783191E-16 ) ) ;
#128 = CLOSED_SHELL ( 'NONE', ( #303, #16, #27, #147, #230, #319 ) ) ;
#129 = DIRECTION ( 'NONE',  ( 0.0000000000000000000, 1.000000000000000000, 0.0000000000000000000 ) ) ;
#130 = CARTESIAN_POINT ( 'NONE',  ( 3.247077645124113894E-13, -1.138921523207038456E-14, 93.00000000000000000 ) ) ;
#131 = APPROVAL ( #82, 'UNSPECIFIED' ) ;
#132 = CC_DESIGN_SECURITY_CLASSIFICATION ( #59, ( #117 ) ) ;
#133 = ORGANIZATION ( 'UNSPECIFIED', 'UNSPECIFIED', '' ) ;
#134 = DIRECTION ( 'NONE',  ( -3.491481338843133355E-15, 1.224646799147353207E-16, -1.000000000000000000 ) ) ;
#135 = DIRECTION ( 'NONE',  ( -4.275831445896958607E-31, -1.000000000000000000, -1.224646799147353207E-16 ) ) ;
#136 = EDGE_CURVE ( 'NONE', #274, #69, #287, .T. ) ;
#137 = DIRECTION ( 'NONE',  ( -3.491481338843133355E-15, 1.224646799147353207E-16, -1.000000000000000000 ) ) ;
#138 = CONICAL_SURFACE ( 'NONE', #100, 2.849999999999990763, 1.029744258676649649 ) ;
#139 = ORIENTED_EDGE ( 'NONE', *, *, #1, .T. ) ;
#140 = DIRECTION ( 'NONE',  ( 3.491481338843133355E-15, -1.224646799147353207E-16, 1.000000000000000000 ) ) ;
#141 = VERTEX_POINT ( 'NONE', #260 ) ;
#142 = CONICAL_SURFACE ( 'NONE', #148, 2.250000000000001776, 0.7853981633974338461 ) ;
#143 = EDGE_CURVE ( 'NONE', #274, #162, #215, .T. ) ;
#144 = DIRECTION ( 'NONE',  ( 0.0000000000000000000, 1.000000000000000000, 0.0000000000000000000 ) ) ;
#145 = DIRECTION ( 'NONE',  ( 0.0000000000000000000, 1.000000000000000000, 0.0000000000000000000 ) ) ;
#146 = ORIENTED_EDGE ( 'NONE', *, *, #312, .F. ) ;
#147 = ADVANCED_FACE ( 'NONE', ( #12 ), #203, .T. ) ;
#148 = AXIS2_PLACEMENT_3D ( 'NONE', #225, #9, #106 ) ;
#149 = ORIENTED_EDGE ( 'NONE', *, *, #259, .T. ) ;
#150 = DIRECTION ( 'NONE',  ( -3.491481338843133355E-15, 1.224646799147353207E-16, -1.000000000000000000 ) ) ;
#151 = CARTESIAN_POINT ( 'NONE',  ( 1.990144363140586139E-13, 2.849999999999990763, 57.00000000000000000 ) ) ;
#152 = CARTESIAN_POINT ( 'NONE',  ( 5.978996869954357394E-15, -2.097149796403542955E-16, 1.712452764228559854 ) ) ;
#153 = FACE_OUTER_BOUND ( 'NONE', #172, .T. ) ;
#154 = PERSON_AND_ORGANIZATION_ROLE ( 'creator' ) ;
#155 = DIRECTION ( 'NONE',  ( -3.491481338843133355E-15, 1.224646799147353207E-16, -1.000000000000000000 ) ) ;
#156 = APPLICATION_PROTOCOL_DEFINITION ( 'international standard', 'config_control_design', 1994, #41 ) ;
#157 = AXIS2_PLACEMENT_3D ( 'NONE', #113, #202, #337 ) ;
#158 = LINE ( 'NONE', #160, #184 ) ;
#159 = DIRECTION ( 'NONE',  ( -3.491481338843133355E-15, 1.224646799147353207E-16, -1.000000000000000000 ) ) ;
#160 = CARTESIAN_POINT ( 'NONE',  ( 5.978996869954355816E-15, -2.849999999999990763, 1.712452764228559410 ) ) ;
#161 = APPROVAL_DATE_TIME ( #211, #131 ) ;
#162 = VERTEX_POINT ( 'NONE', #234 ) ;
#163 = EDGE_CURVE ( 'NONE', #31, #75, #36, .T. ) ;
#164 = CARTESIAN_POINT ( 'NONE',  ( 0.0000000000000000000, 0.0000000000000000000, 0.0000000000000000000 ) ) ;
#165 = VECTOR ( 'NONE', #290, 1000.000000000000000 ) ;
#166 = CYLINDRICAL_SURFACE ( 'NONE', #43, 2.849999999999993872 ) ;
#167 = CARTESIAN_POINT ( 'NONE',  ( 3.247077645124113894E-13, 1.687229755494574482E-32, 93.00000000000000000 ) ) ;
#168 = CYLINDRICAL_SURFACE ( 'NONE', #70, 2.849999999999999645 ) ;
#169 = EDGE_CURVE ( 'NONE', #141, #190, #336, .T. ) ;
#170 =( GEOMETRIC_REPRESENTATION_CONTEXT ( 3 ) GLOBAL_UNCERTAINTY_ASSIGNED_CONTEXT ( ( #15 ) ) GLOBAL_UNIT_ASSIGNED_CONTEXT ( ( #247, #76, #71 ) ) REPRESENTATION_CONTEXT ( 'NONE', 'WORKASPACE' ) );
#171 = DATE_TIME_ROLE ( 'classification_date' ) ;
#172 = EDGE_LOOP ( 'NONE', ( #146, #313, #309, #101 ) ) ;
#173 = ORIENTED_EDGE ( 'NONE', *, *, #249, .F. ) ;
#174 = ADVANCED_FACE ( 'NONE', ( #286 ), #108, .T. ) ;
#175 = ORIENTED_EDGE ( 'NONE', *, *, #169, .F. ) ;
#176 = ORIENTED_EDGE ( 'NONE', *, *, #208, .T. ) ;
#177 = CIRCLE ( 'NONE', #333, 2.849999999999997424 ) ;
#178 = CIRCLE ( 'NONE', #10, 2.849999999999997424 ) ;
#179 = ORIENTED_EDGE ( 'NONE', *, *, #327, .F. ) ;
#180 = DIRECTION ( 'NONE',  ( -2.468850131082300448E-15, 0.7071067811865374697, -0.7071067811865576758 ) ) ;
#181 = APPROVAL_DATE_TIME ( #185, #56 ) ;
#182 = LINE ( 'NONE', #204, #30 ) ;
#183 = AXIS2_PLACEMENT_3D ( 'NONE', #114, #332, #317 ) ;
#184 = VECTOR ( 'NONE', #42, 1000.000000000000000 ) ;
#185 = DATE_AND_TIME ( #205, #284 ) ;
#186 = PERSON_AND_ORGANIZATION ( #269, #133 ) ;
#187 = CARTESIAN_POINT ( 'NONE',  ( 1.028457409297632345E-13, -2.850000000000004530, 57.00000000000000000 ) ) ;
#188 = EDGE_LOOP ( 'NONE', ( #77, #176, #119 ) ) ;
#189 = CALENDAR_DATE ( 2021, 2, 9 ) ;
#190 = VERTEX_POINT ( 'NONE', #331 ) ;
#191 = DIRECTION ( 'NONE',  ( -5.406119142139627312E-31, -1.000000000000000000, -1.521687259628783191E-16 ) ) ;
#192 = EDGE_LOOP ( 'NONE', ( #23, #29 ) ) ;
#193 = PRODUCT_DEFINITION ( 'UNKNOWN', '', #117, #291 ) ;
#194 = COORDINATED_UNIVERSAL_TIME_OFFSET ( 1, 0, .AHEAD. ) ;
#195 = ORIENTED_EDGE ( 'NONE', *, *, #208, .F. ) ;
#196 = CONICAL_SURFACE ( 'NONE', #58, 2.849999999999990763, 1.029744258676649649 ) ;
#197 = CIRCLE ( 'NONE', #107, 2.250000000000001776 ) ;
#198 = APPROVAL_ROLE ( '' ) ;
#199 = PLANE ( 'NONE',  #116 ) ;
#200 = ORIENTED_EDGE ( 'NONE', *, *, #136, .T. ) ;
#201 = DIRECTION ( 'NONE',  ( 1.903218546456022717E-15, 0.8571673007021097801, 0.5150380749100585964 ) ) ;
#202 = DIRECTION ( 'NONE',  ( 0.0000000000000000000, 0.0000000000000000000, 1.000000000000000000 ) ) ;
#203 = CYLINDRICAL_SURFACE ( 'NONE', #212, 2.849999999999999645 ) ;
#204 = CARTESIAN_POINT ( 'NONE',  ( 3.249833100422195498E-13, -2.250000000000013323, 93.00000000000000000 ) ) ;
#205 = CALENDAR_DATE ( 2021, 2, 9 ) ;
#206 = DIRECTION ( 'NONE',  ( -5.406119142139627312E-31, -1.000000000000000000, -1.521687259628783191E-16 ) ) ;
#207 = CARTESIAN_POINT ( 'NONE',  ( 1.218611962080630812E-30, 2.849999999999993872, 3.490243377569949652E-16 ) ) ;
#208 = EDGE_CURVE ( 'NONE', #31, #69, #158, .T. ) ;
#209 = CARTESIAN_POINT ( 'NONE',  ( 3.226128757091054463E-13, -1.131573642412154126E-14, 92.39999999999997726 ) ) ;
#210 = SHAPE_DEFINITION_REPRESENTATION ( #64, #321 ) ;
#211 = DATE_AND_TIME ( #240, #45 ) ;
#212 = AXIS2_PLACEMENT_3D ( 'NONE', #258, #155, #263 ) ;
#213 = ADVANCED_FACE ( 'NONE', ( #267 ), #95, .T. ) ;
#214 = FACE_OUTER_BOUND ( 'NONE', #24, .T. ) ;
#215 = CIRCLE ( 'NONE', #334, 2.849999999999997424 ) ;
#216 = ORIENTED_EDGE ( 'NONE', *, *, #92, .F. ) ;
#217 = ORIENTED_EDGE ( 'NONE', *, *, #136, .F. ) ;
#218 = DIRECTION ( 'NONE',  ( 4.275831445896958607E-31, 1.000000000000000000, 1.224646799147353207E-16 ) ) ;
#219 = FACE_OUTER_BOUND ( 'NONE', #121, .T. ) ;
#220 = CC_DESIGN_APPROVAL ( #56, ( #117 ) ) ;
#221 = APPLICATION_CONTEXT ( 'configuration controlled 3d designs of mechanical parts and assemblies' ) ;
#222 = DIRECTION ( 'NONE',  ( -3.491481338843133355E-15, 1.224646799147353207E-16, -1.000000000000000000 ) ) ;
#223 = CARTESIAN_POINT ( 'NONE',  ( 0.0000000000000000000, 0.0000000000000000000, 0.0000000000000000000 ) ) ;
#224 = APPROVAL_STATUS ( 'not_yet_approved' ) ;
#225 = CARTESIAN_POINT ( 'NONE',  ( 3.247077645124113894E-13, -1.138921523207038456E-14, 93.00000000000000000 ) ) ;
#226 = CONICAL_SURFACE ( 'NONE', #72, 2.250000000000001776, 0.7853981633974338461 ) ;
#227 = CARTESIAN_POINT ( 'NONE',  ( 3.247077645124113894E-13, -1.138921523207038456E-14, 93.00000000000000000 ) ) ;
#228 = PERSON_AND_ORGANIZATION_ROLE ( 'classification_officer' ) ;
#229 = CARTESIAN_POINT ( 'NONE',  ( 5.978996869954357394E-15, -2.097149796403542955E-16, 1.712452764228559854 ) ) ;
#230 = ADVANCED_FACE ( 'NONE', ( #153 ), #226, .T. ) ;
#231 = CARTESIAN_POINT ( 'NONE',  ( 1.990144363140586139E-13, -6.980486755139912911E-15, 57.00000000000000000 ) ) ;
#232 = CARTESIAN_POINT ( 'NONE',  ( 3.247077645124113894E-13, 2.249999999999990674, 93.00000000000000000 ) ) ;
#233 = PRODUCT_RELATED_PRODUCT_CATEGORY ( 'detail', '', ( #299 ) ) ;
#234 = CARTESIAN_POINT ( 'NONE',  ( 1.990144363140586139E-13, 2.849999999999990763, 57.00000000000000000 ) ) ;
#235 = CLOSED_SHELL ( 'NONE', ( #213, #80, #97, #38, #174 ) ) ;
#236 = DIRECTION ( 'NONE',  ( -3.491481338843133355E-15, 1.224646799147353207E-16, -1.000000000000000000 ) ) ;
#237 = CC_DESIGN_APPROVAL ( #304, ( #59 ) ) ;
#238 = PLANE ( 'NONE',  #292 ) ;
#239 = CARTESIAN_POINT ( 'NONE',  ( 0.0000000000000000000, 0.0000000000000000000, 0.0000000000000000000 ) ) ;
#240 = CALENDAR_DATE ( 2021, 2, 9 ) ;
#241 = LOCAL_TIME ( 15, 22, 53.00000000000000000, #11 ) ;
#242 = COORDINATED_UNIVERSAL_TIME_OFFSET ( 1, 0, .AHEAD. ) ;
#243 = APPLICATION_PROTOCOL_DEFINITION ( 'international standard', 'config_control_design', 1994, #221 ) ;
#244 = ORIENTED_EDGE ( 'NONE', *, *, #84, .F. ) ;
#245 = ORIENTED_EDGE ( 'NONE', *, *, #169, .T. ) ;
#246 = MANIFOLD_SOLID_BREP ( 'Corps-Déplacer/Copier1[2]', #235 ) ;
#247 =( LENGTH_UNIT ( ) NAMED_UNIT ( * ) SI_UNIT ( .MILLI., .METRE. ) );
#248 = ORIENTED_EDGE ( 'NONE', *, *, #143, .T. ) ;
#249 = EDGE_CURVE ( 'NONE', #288, #141, #111, .T. ) ;
#250 = ORIENTED_EDGE ( 'NONE', *, *, #270, .F. ) ;
#251 = APPROVAL_PERSON_ORGANIZATION ( #65, #56, #198 ) ;
#252 = DIRECTION ( 'NONE',  ( -3.491481338843133355E-15, 1.224646799147353207E-16, -1.000000000000000000 ) ) ;
#253 = DIRECTION ( 'NONE',  ( 3.491481338843133355E-15, -1.224646799147353207E-16, 1.000000000000000000 ) ) ;
#254 = DIRECTION ( 'NONE',  ( -3.491481338843133355E-15, 1.224646799147353207E-16, -1.000000000000000000 ) ) ;
#255 = DIRECTION ( 'NONE',  ( 3.491481338843133355E-15, -1.224646799147353207E-16, 1.000000000000000000 ) ) ;
#256 = AXIS2_PLACEMENT_3D ( 'NONE', #102, #47, #144 ) ;
#257 = APPROVAL_PERSON_ORGANIZATION ( #298, #131, #275 ) ;
#258 = CARTESIAN_POINT ( 'NONE',  ( 0.0000000000000000000, 0.0000000000000000000, 0.0000000000000000000 ) ) ;
#259 = EDGE_CURVE ( 'NONE', #162, #75, #296, .T. ) ;
#260 = CARTESIAN_POINT ( 'NONE',  ( 3.226128757091054463E-13, 2.849999999999990763, 92.39999999999997726 ) ) ;
#261 = PERSON_AND_ORGANIZATION ( #269, #133 ) ;
#262 = DIRECTION ( 'NONE',  ( 0.0000000000000000000, 1.000000000000000000, 0.0000000000000000000 ) ) ;
#263 = DIRECTION ( 'NONE',  ( 4.275831445896958607E-31, 1.000000000000000000, 1.224646799147353207E-16 ) ) ;
#264 = APPROVAL_ROLE ( '' ) ;
#265 = SECURITY_CLASSIFICATION_LEVEL ( 'unclassified' ) ;
#266 = LINE ( 'NONE', #40, #99 ) ;
#267 = FACE_OUTER_BOUND ( 'NONE', #22, .T. ) ;
#268 = EDGE_CURVE ( 'NONE', #190, #141, #280, .T. ) ;
#269 = PERSON ( 'UNSPECIFIED', 'UNSPECIFIED', 'UNSPECIFIED', ('UNSPECIFIED'), ('UNSPECIFIED'), ('UNSPECIFIED') ) ;
#270 = EDGE_CURVE ( 'NONE', #141, #281, #328, .T. ) ;
#271 = CALENDAR_DATE ( 2021, 2, 9 ) ;
#272 = DIRECTION ( 'NONE',  ( -3.491481338843133355E-15, 1.224646799147353207E-16, -1.000000000000000000 ) ) ;
#273 = ORIENTED_EDGE ( 'NONE', *, *, #92, .T. ) ;
#274 = VERTEX_POINT ( 'NONE', #187 ) ;
#275 = APPROVAL_ROLE ( '' ) ;
#276 = CARTESIAN_POINT ( 'NONE',  ( 0.0000000000000000000, 0.0000000000000000000, 0.0000000000000000000 ) ) ;
#277 = CC_DESIGN_PERSON_AND_ORGANIZATION_ASSIGNMENT ( #57, #326, ( #117 ) ) ;
#278 = ORIENTED_EDGE ( 'NONE', *, *, #124, .F. ) ;
#279 = DIRECTION ( 'NONE',  ( 4.275831445896958607E-31, 1.000000000000000000, 1.224646799147353207E-16 ) ) ;
#280 = CIRCLE ( 'NONE', #310, 2.850000000000001865 ) ;
#281 = VERTEX_POINT ( 'NONE', #151 ) ;
#282 = VERTEX_POINT ( 'NONE', #109 ) ;
#283 = ORIENTED_EDGE ( 'NONE', *, *, #20, .T. ) ;
#284 = LOCAL_TIME ( 15, 22, 53.00000000000000000, #194 ) ;
#285 = VECTOR ( 'NONE', #236, 1000.000000000000000 ) ;
#286 = FACE_OUTER_BOUND ( 'NONE', #25, .T. ) ;
#287 = LINE ( 'NONE', #61, #325 ) ;
#288 = VERTEX_POINT ( 'NONE', #318 ) ;
#289 = COORDINATED_UNIVERSAL_TIME_OFFSET ( 1, 0, .AHEAD. ) ;
#290 = DIRECTION ( 'NONE',  ( -3.491481338843133355E-15, 1.224646799147353207E-16, -1.000000000000000000 ) ) ;
#291 = DESIGN_CONTEXT ( 'detailed design', #41, 'design' ) ;
#292 = AXIS2_PLACEMENT_3D ( 'NONE', #167, #272, #218 ) ;
#293 = CC_DESIGN_DATE_AND_TIME_ASSIGNMENT ( #67, #171, ( #59 ) ) ;
#294 = DIRECTION ( 'NONE',  ( -3.491481338843133355E-15, 1.224646799147353207E-16, -1.000000000000000000 ) ) ;
#295 = DIRECTION ( 'NONE',  ( 4.275831445896959482E-31, 1.000000000000000000, 1.224646799147353454E-16 ) ) ;
#296 = LINE ( 'NONE', #207, #285 ) ;
#297 = AXIS2_PLACEMENT_3D ( 'NONE', #315, #150, #129 ) ;
#298 = PERSON_AND_ORGANIZATION ( #269, #133 ) ;
#299 = PRODUCT ( '43357', '43357', '', ( #329 ) ) ;
#300 = PERSON_AND_ORGANIZATION_ROLE ( 'creator' ) ;
#301 = ORIENTED_EDGE ( 'NONE', *, *, #268, .T. ) ;
#302 = APPROVAL_DATE_TIME ( #115, #304 ) ;
#303 = ADVANCED_FACE ( 'NONE', ( #126 ), #142, .T. ) ;
#304 = APPROVAL ( #224, 'UNSPECIFIED' ) ;
#305 = FACE_OUTER_BOUND ( 'NONE', #308, .T. ) ;
#306 = AXIS2_PLACEMENT_3D ( 'NONE', #229, #32, #127 ) ;
#307 = ORIENTED_EDGE ( 'NONE', *, *, #312, .T. ) ;
#308 = EDGE_LOOP ( 'NONE', ( #217, #248, #149, #8 ) ) ;
#309 = ORIENTED_EDGE ( 'NONE', *, *, #249, .T. ) ;
#310 = AXIS2_PLACEMENT_3D ( 'NONE', #209, #294, #262 ) ;
#311 = VERTEX_POINT ( 'NONE', #83 ) ;
#312 = EDGE_CURVE ( 'NONE', #282, #190, #182, .T. ) ;
#313 = ORIENTED_EDGE ( 'NONE', *, *, #124, .T. ) ;
#314 = DIRECTION ( 'NONE',  ( 0.0000000000000000000, 1.000000000000000000, 0.0000000000000000000 ) ) ;
#315 = CARTESIAN_POINT ( 'NONE',  ( 3.226128757091054463E-13, -1.131573642412154126E-14, 92.39999999999997726 ) ) ;
#316 = ORIENTED_EDGE ( 'NONE', *, *, #259, .F. ) ;
#317 = DIRECTION ( 'NONE',  ( 0.0000000000000000000, 1.000000000000000000, 0.0000000000000000000 ) ) ;
#318 = CARTESIAN_POINT ( 'NONE',  ( 3.247077645124113894E-13, 2.249999999999990674, 93.00000000000000000 ) ) ;
#319 = ADVANCED_FACE ( 'NONE', ( #86 ), #238, .F. ) ;
#320 = DIRECTION ( 'NONE',  ( -3.491481338843133355E-15, 1.224646799147353207E-16, -1.000000000000000000 ) ) ;
#321 = ADVANCED_BREP_SHAPE_REPRESENTATION ( '43357', ( #33, #246, #157 ), #170 ) ;
#322 = PERSON_AND_ORGANIZATION ( #269, #133 ) ;
#323 = DIRECTION ( 'NONE',  ( -2.382254525458753363E-15, -0.7071067811865372477, -0.7071067811865578978 ) ) ;
#324 = AXIS2_PLACEMENT_3D ( 'NONE', #2, #252, #125 ) ;
#325 = VECTOR ( 'NONE', #85, 1000.000000000000000 ) ;
#326 = PERSON_AND_ORGANIZATION_ROLE ( 'design_supplier' ) ;
#327 = EDGE_CURVE ( 'NONE', #281, #311, #178, .T. ) ;
#328 = LINE ( 'NONE', #13, #165 ) ;
#329 = MECHANICAL_CONTEXT ( 'NONE', #221, 'mechanical' ) ;
#330 = APPROVAL_STATUS ( 'not_yet_approved' ) ;
#331 = CARTESIAN_POINT ( 'NONE',  ( 2.611626803493389028E-13, -2.850000000000012967, 92.39999999999997726 ) ) ;
#332 = DIRECTION ( 'NONE',  ( -3.491481338843133355E-15, 1.224646799147353207E-16, -1.000000000000000000 ) ) ;
#333 = AXIS2_PLACEMENT_3D ( 'NONE', #26, #222, #145 ) ;
#334 = AXIS2_PLACEMENT_3D ( 'NONE', #231, #62, #89 ) ;
#335 = ORIENTED_EDGE ( 'NONE', *, *, #1, .F. ) ;
#336 = CIRCLE ( 'NONE', #297, 2.850000000000001865 ) ;
#337 = DIRECTION ( 'NONE',  ( 1.000000000000000000, 0.0000000000000000000, 0.0000000000000000000 ) ) ;
ENDSEC;
END-ISO-10303-21;
