ISO-10303-21;
HEADER;
FILE_DESCRIPTION (( 'STEP AP203' ),
    '1' );
FILE_NAME ('43353.step',
    '2021-11-01T09:16:21',
    ( '' ),
    ( '' ),
    'SwSTEP 2.0',
    'SolidWorks 2019',
    '' );
FILE_SCHEMA (( 'CONFIG_CONTROL_DESIGN' ));
ENDSEC;

DATA;
#1 = CARTESIAN_POINT ( 'NONE',  ( 2.444036937190193033E-14, -1.749999999999998002, 6.999999999999999112 ) ) ;
#2 = CARTESIAN_POINT ( 'NONE',  ( 1.969195475107526960E-13, 2.999999999999991562, 56.39999999999999147 ) ) ;
#3 =( GEOMETRIC_REPRESENTATION_CONTEXT ( 3 ) GLOBAL_UNCERTAINTY_ASSIGNED_CONTEXT ( ( #175 ) ) GLOBAL_UNIT_ASSIGNED_CONTEXT ( ( #112, #107, #76 ) ) REPRESENTATION_CONTEXT ( 'NONE', 'WORKASPACE' ) );
#4 = PERSON_AND_ORGANIZATION ( #63, #141 ) ;
#5 = EDGE_LOOP ( 'NONE', ( #81 ) ) ;
#6 = CIRCLE ( 'NONE', #174, 2.999999999999995115 ) ;
#7 = DATE_AND_TIME ( #66, #221 ) ;
#8 = EDGE_LOOP ( 'NONE', ( #38 ) ) ;
#9 = CYLINDRICAL_SURFACE ( 'NONE', #74, 1.749999999999997113 ) ;
#10 = AXIS2_PLACEMENT_3D ( 'NONE', #147, #178, #177 ) ;
#11 = DIRECTION ( 'NONE',  ( 4.275831445896959482E-31, 1.000000000000000000, 1.224646799147353207E-16 ) ) ;
#12 = FACE_OUTER_BOUND ( 'NONE', #211, .T. ) ;
#13 = CC_DESIGN_DATE_AND_TIME_ASSIGNMENT ( #7, #33, ( #87 ) ) ;
#14 = DIRECTION ( 'NONE',  ( -4.275831445896958607E-31, -1.000000000000000000, -1.224646799147353207E-16 ) ) ;
#15 = APPROVAL_DATE_TIME ( #135, #83 ) ;
#16 = CLOSED_SHELL ( 'NONE', ( #86, #197, #150, #115, #154 ) ) ;
#17 = SECURITY_CLASSIFICATION_LEVEL ( 'unclassified' ) ;
#18 = CALENDAR_DATE ( 2021, 1, 11 ) ;
#19 = CC_DESIGN_APPROVAL ( #83, ( #170 ) ) ;
#20 = DIRECTION ( 'NONE',  ( 0.0000000000000000000, -1.000000000000000000, 0.0000000000000000000 ) ) ;
#21 = ORIENTED_EDGE ( 'NONE', *, *, #161, .F. ) ;
#22 = ORIENTED_EDGE ( 'NONE', *, *, #205, .T. ) ;
#23 = CARTESIAN_POINT ( 'NONE',  ( 2.444036937190193033E-14, -1.749999999999998002, 6.999999999999999112 ) ) ;
#24 = FACE_OUTER_BOUND ( 'NONE', #8, .T. ) ;
#25 = PLANE ( 'NONE',  #36 ) ;
#26 = CARTESIAN_POINT ( 'NONE',  ( -1.068961576881612160E-30, 3.749412488549432166E-32, -3.061627639218033290E-16 ) ) ;
#27 = DIRECTION ( 'NONE',  ( 0.0000000000000000000, 1.000000000000000000, 0.0000000000000000000 ) ) ;
#28 = CC_DESIGN_APPROVAL ( #140, ( #87 ) ) ;
#29 = PERSON_AND_ORGANIZATION ( #63, #141 ) ;
#30 = VERTEX_POINT ( 'NONE', #31 ) ;
#31 = CARTESIAN_POINT ( 'NONE',  ( -1.500049445354476196E-30, -1.749999999999997113, -4.296312366519771556E-16 ) ) ;
#32 = AXIS2_PLACEMENT_3D ( 'NONE', #91, #165, #58 ) ;
#33 = DATE_TIME_ROLE ( 'classification_date' ) ;
#34 = CC_DESIGN_PERSON_AND_ORGANIZATION_ASSIGNMENT ( #29, #46, ( #203 ) ) ;
#35 = EDGE_LOOP ( 'NONE', ( #22 ) ) ;
#36 = AXIS2_PLACEMENT_3D ( 'NONE', #162, #88, #72 ) ;
#37 = EDGE_CURVE ( 'NONE', #142, #142, #179, .T. ) ;
#38 = ORIENTED_EDGE ( 'NONE', *, *, #56, .F. ) ;
#39 = DIRECTION ( 'NONE',  ( 0.0000000000000000000, -1.000000000000000000, 0.0000000000000000000 ) ) ;
#40 = DIRECTION ( 'NONE',  ( 0.0000000000000000000, 1.000000000000000000, 0.0000000000000000000 ) ) ;
#41 = AXIS2_PLACEMENT_3D ( 'NONE', #53, #194, #20 ) ;
#42 = PLANE ( 'NONE',  #82 ) ;
#43 = DIRECTION ( 'NONE',  ( -4.275831445896958607E-31, -1.000000000000000000, -1.224646799147353207E-16 ) ) ;
#44 = APPROVAL_DATE_TIME ( #220, #71 ) ;
#45 = APPLICATION_CONTEXT ( 'configuration controlled 3d designs of mechanical parts and assemblies' ) ;
#46 = PERSON_AND_ORGANIZATION_ROLE ( 'design_supplier' ) ;
#47 = CALENDAR_DATE ( 2021, 1, 11 ) ;
#48 = CC_DESIGN_PERSON_AND_ORGANIZATION_ASSIGNMENT ( #133, #207, ( #87 ) ) ;
#49 = CONICAL_SURFACE ( 'NONE', #159, 2.399999999999998579, 0.7853981633974396193 ) ;
#50 = CARTESIAN_POINT ( 'NONE',  ( 1.990144363140586139E-13, 2.399999999999991473, 57.00000000000000000 ) ) ;
#51 = ORIENTED_EDGE ( 'NONE', *, *, #205, .F. ) ;
#52 = DATE_AND_TIME ( #97, #123 ) ;
#53 = CARTESIAN_POINT ( 'NONE',  ( 2.444036937190193033E-14, -8.592624733039555931E-16, 6.999999999999999112 ) ) ;
#54 = APPROVAL_PERSON_ORGANIZATION ( #166, #83, #94 ) ;
#55 = DIRECTION ( 'NONE',  ( -4.275831445896958607E-31, -1.000000000000000000, -1.224646799147353207E-16 ) ) ;
#56 = EDGE_CURVE ( 'NONE', #213, #213, #168, .T. ) ;
#57 = DIRECTION ( 'NONE',  ( -3.491481338843133355E-15, 1.224646799147353207E-16, -1.000000000000000000 ) ) ;
#58 = DIRECTION ( 'NONE',  ( 0.0000000000000000000, 1.000000000000000000, 0.0000000000000000000 ) ) ;
#59 = FACE_OUTER_BOUND ( 'NONE', #35, .T. ) ;
#60 = FACE_OUTER_BOUND ( 'NONE', #195, .T. ) ;
#61 = CARTESIAN_POINT ( 'NONE',  ( 3.943240970200190237E-14, 2.999999999999994671, 11.29389100932941581 ) ) ;
#62 = DIRECTION ( 'NONE',  ( 1.000000000000000000, 0.0000000000000000000, 0.0000000000000000000 ) ) ;
#63 = PERSON ( 'UNSPECIFIED', 'UNSPECIFIED', 'UNSPECIFIED', ('UNSPECIFIED'), ('UNSPECIFIED'), ('UNSPECIFIED') ) ;
#64 = APPROVAL_STATUS ( 'not_yet_approved' ) ;
#65 = ORIENTED_EDGE ( 'NONE', *, *, #56, .T. ) ;
#66 = CALENDAR_DATE ( 2021, 1, 11 ) ;
#67 = ORIENTED_EDGE ( 'NONE', *, *, #37, .T. ) ;
#68 = EDGE_LOOP ( 'NONE', ( #173 ) ) ;
#69 = APPROVAL_ROLE ( '' ) ;
#70 = DIRECTION ( 'NONE',  ( 3.491481338843133355E-15, -1.224646799147353207E-16, 1.000000000000000000 ) ) ;
#71 = APPROVAL ( #209, 'UNSPECIFIED' ) ;
#72 = DIRECTION ( 'NONE',  ( 4.275831445896958607E-31, 1.000000000000000000, 1.224646799147353207E-16 ) ) ;
#73 = FACE_BOUND ( 'NONE', #68, .T. ) ;
#74 = AXIS2_PLACEMENT_3D ( 'NONE', #89, #127, #163 ) ;
#75 = FACE_OUTER_BOUND ( 'NONE', #176, .T. ) ;
#76 =( NAMED_UNIT ( * ) SI_UNIT ( $, .STERADIAN. ) SOLID_ANGLE_UNIT ( ) );
#77 = CC_DESIGN_PERSON_AND_ORGANIZATION_ASSIGNMENT ( #149, #185, ( #214 ) ) ;
#78 = VERTEX_POINT ( 'NONE', #50 ) ;
#79 = DATE_TIME_ROLE ( 'creation_date' ) ;
#80 = ORIENTED_EDGE ( 'NONE', *, *, #103, .T. ) ;
#81 = ORIENTED_EDGE ( 'NONE', *, *, #37, .F. ) ;
#82 = AXIS2_PLACEMENT_3D ( 'NONE', #26, #90, #55 ) ;
#83 = APPROVAL ( #186, 'UNSPECIFIED' ) ;
#84 = DESIGN_CONTEXT ( 'detailed design', #196, 'design' ) ;
#85 = DIRECTION ( 'NONE',  ( 3.491481338843133355E-15, -1.224646799147353207E-16, 1.000000000000000000 ) ) ;
#86 = ADVANCED_FACE ( 'NONE', ( #59, #158 ), #146, .T. ) ;
#87 = SECURITY_CLASSIFICATION ( '', '', #17 ) ;
#88 = DIRECTION ( 'NONE',  ( -3.491481338843133355E-15, 1.224646799147353207E-16, -1.000000000000000000 ) ) ;
#89 = CARTESIAN_POINT ( 'NONE',  ( -6.413731847436034514E-31, 0.0000000000000000000, -1.836965810494968570E-16 ) ) ;
#90 = DIRECTION ( 'NONE',  ( 3.491481338843133355E-15, -1.224646799147353207E-16, 1.000000000000000000 ) ) ;
#91 = CARTESIAN_POINT ( 'NONE',  ( 1.969195475107526960E-13, -6.907007947191071191E-15, 56.39999999999999147 ) ) ;
#92 = APPLICATION_PROTOCOL_DEFINITION ( 'international standard', 'config_control_design', 1994, #45 ) ;
#93 = PERSON_AND_ORGANIZATION_ROLE ( 'creator' ) ;
#94 = APPROVAL_ROLE ( '' ) ;
#95 = COORDINATED_UNIVERSAL_TIME_OFFSET ( 1, 0, .AHEAD. ) ;
#96 = APPROVAL_PERSON_ORGANIZATION ( #206, #71, #190 ) ;
#97 = CALENDAR_DATE ( 2021, 1, 11 ) ;
#98 = CC_DESIGN_PERSON_AND_ORGANIZATION_ASSIGNMENT ( #109, #93, ( #203 ) ) ;
#99 = ORIENTED_EDGE ( 'NONE', *, *, #161, .T. ) ;
#100 = AXIS2_PLACEMENT_3D ( 'NONE', #137, #181, #39 ) ;
#101 = FACE_OUTER_BOUND ( 'NONE', #5, .T. ) ;
#102 = CARTESIAN_POINT ( 'NONE',  ( 1.990144363140586139E-13, -6.980486755139912911E-15, 57.00000000000000000 ) ) ;
#103 = EDGE_CURVE ( 'NONE', #108, #108, #6, .T. ) ;
#104 = CARTESIAN_POINT ( 'NONE',  ( 2.444036937190193033E-14, 2.249639673992779569E-32, 6.999999999999999112 ) ) ;
#105 = LOCAL_TIME ( 10, 16, 21.00000000000000000, #223 ) ;
#106 = CC_DESIGN_PERSON_AND_ORGANIZATION_ASSIGNMENT ( #169, #129, ( #170 ) ) ;
#107 =( NAMED_UNIT ( * ) PLANE_ANGLE_UNIT ( ) SI_UNIT ( $, .RADIAN. ) );
#108 = VERTEX_POINT ( 'NONE', #61 ) ;
#109 = PERSON_AND_ORGANIZATION ( #63, #141 ) ;
#110 = CIRCLE ( 'NONE', #10, 1.749999999999997113 ) ;
#111 = CC_DESIGN_SECURITY_CLASSIFICATION ( #87, ( #203 ) ) ;
#112 =( LENGTH_UNIT ( ) NAMED_UNIT ( * ) SI_UNIT ( .MILLI., .METRE. ) );
#113 = EDGE_LOOP ( 'NONE', ( #116 ) ) ;
#114 = APPROVAL_PERSON_ORGANIZATION ( #4, #140, #69 ) ;
#115 = ADVANCED_FACE ( 'NONE', ( #200, #12 ), #118, .F. ) ;
#116 = ORIENTED_EDGE ( 'NONE', *, *, #125, .F. ) ;
#117 = MANIFOLD_SOLID_BREP ( 'Corps-Déplacer/Copier1[1]', #16 ) ;
#118 = TOROIDAL_SURFACE ( 'NONE', #153, 9.749999999999994671, 8.000000000000000000 ) ;
#119 = MANIFOLD_SOLID_BREP ( 'Corps-Déplacer/Copier1[2]', #138 ) ;
#120 = CARTESIAN_POINT ( 'NONE',  ( 0.0000000000000000000, 0.0000000000000000000, 0.0000000000000000000 ) ) ;
#121 = DIRECTION ( 'NONE',  ( -3.491481338843133355E-15, 1.224646799147353207E-16, -1.000000000000000000 ) ) ;
#122 = AXIS2_PLACEMENT_3D ( 'NONE', #120, #199, #11 ) ;
#123 = LOCAL_TIME ( 10, 16, 21.00000000000000000, #191 ) ;
#124 = PLANE ( 'NONE',  #193 ) ;
#125 = EDGE_CURVE ( 'NONE', #78, #78, #156, .T. ) ;
#126 = DIRECTION ( 'NONE',  ( 0.0000000000000000000, 1.000000000000000000, 0.0000000000000000000 ) ) ;
#127 = DIRECTION ( 'NONE',  ( 3.491481338843133355E-15, -1.227517819005651059E-16, 1.000000000000000000 ) ) ;
#128 = PRODUCT_RELATED_PRODUCT_CATEGORY ( 'detail', '', ( #214 ) ) ;
#129 = PERSON_AND_ORGANIZATION_ROLE ( 'creator' ) ;
#130 = LOCAL_TIME ( 10, 16, 21.00000000000000000, #95 ) ;
#131 = VERTEX_POINT ( 'NONE', #2 ) ;
#132 = PRODUCT_DEFINITION_SHAPE ( 'NONE', 'NONE',  #170 ) ;
#133 = PERSON_AND_ORGANIZATION ( #63, #141 ) ;
#134 = APPLICATION_PROTOCOL_DEFINITION ( 'international standard', 'config_control_design', 1994, #196 ) ;
#135 = DATE_AND_TIME ( #208, #105 ) ;
#136 = EDGE_LOOP ( 'NONE', ( #67 ) ) ;
#137 = CARTESIAN_POINT ( 'NONE',  ( 2.444036937190193033E-14, -8.592624733039555931E-16, 6.999999999999999112 ) ) ;
#138 = CLOSED_SHELL ( 'NONE', ( #219, #184, #148 ) ) ;
#139 = EDGE_LOOP ( 'NONE', ( #99 ) ) ;
#140 = APPROVAL ( #64, 'UNSPECIFIED' ) ;
#141 = ORGANIZATION ( 'UNSPECIFIED', 'UNSPECIFIED', '' ) ;
#142 = VERTEX_POINT ( 'NONE', #23 ) ;
#143 = DIRECTION ( 'NONE',  ( -2.639570406268317994E-31, -1.000000000000000000, -1.227517819005651059E-16 ) ) ;
#144 = CC_DESIGN_DATE_AND_TIME_ASSIGNMENT ( #187, #79, ( #170 ) ) ;
#145 = FACE_OUTER_BOUND ( 'NONE', #113, .T. ) ;
#146 = CYLINDRICAL_SURFACE ( 'NONE', #122, 2.999999999999995115 ) ;
#147 = CARTESIAN_POINT ( 'NONE',  ( -7.500247226772380978E-31, 3.819917276719466463E-33, -2.148156183259885778E-16 ) ) ;
#148 = ADVANCED_FACE ( 'NONE', ( #60 ), #42, .F. ) ;
#149 = PERSON_AND_ORGANIZATION ( #63, #141 ) ;
#150 = ADVANCED_FACE ( 'NONE', ( #145 ), #25, .F. ) ;
#151 = CARTESIAN_POINT ( 'NONE',  ( 0.0000000000000000000, 0.0000000000000000000, 0.0000000000000000000 ) ) ;
#152 = MECHANICAL_CONTEXT ( 'NONE', #45, 'mechanical' ) ;
#153 = AXIS2_PLACEMENT_3D ( 'NONE', #198, #218, #143 ) ;
#154 = ADVANCED_FACE ( 'NONE', ( #101 ), #215, .F. ) ;
#155 = ORIENTED_EDGE ( 'NONE', *, *, #103, .F. ) ;
#156 = CIRCLE ( 'NONE', #188, 2.399999999999998579 ) ;
#157 = SHAPE_DEFINITION_REPRESENTATION ( #132, #212 ) ;
#158 = FACE_OUTER_BOUND ( 'NONE', #192, .T. ) ;
#159 = AXIS2_PLACEMENT_3D ( 'NONE', #102, #57, #27 ) ;
#160 = FACE_OUTER_BOUND ( 'NONE', #139, .T. ) ;
#161 = EDGE_CURVE ( 'NONE', #30, #30, #110, .T. ) ;
#162 = CARTESIAN_POINT ( 'NONE',  ( 1.990144363140586139E-13, 1.799711739194217634E-32, 57.00000000000000000 ) ) ;
#163 = DIRECTION ( 'NONE',  ( -4.285855558155653280E-31, -1.000000000000000000, -1.227517819005651059E-16 ) ) ;
#164 = CIRCLE ( 'NONE', #32, 2.999999999999998224 ) ;
#165 = DIRECTION ( 'NONE',  ( -3.491481338843133355E-15, 1.224646799147353207E-16, -1.000000000000000000 ) ) ;
#166 = PERSON_AND_ORGANIZATION ( #63, #141 ) ;
#167 = DIRECTION ( 'NONE',  ( 0.0000000000000000000, 0.0000000000000000000, 1.000000000000000000 ) ) ;
#168 = CIRCLE ( 'NONE', #100, 1.749999999999997113 ) ;
#169 = PERSON_AND_ORGANIZATION ( #63, #141 ) ;
#170 = PRODUCT_DEFINITION ( 'UNKNOWN', '', #203, #84 ) ;
#171 = LOCAL_TIME ( 10, 16, 21.00000000000000000, #204 ) ;
#172 = APPROVAL_DATE_TIME ( #52, #140 ) ;
#173 = ORIENTED_EDGE ( 'NONE', *, *, #125, .T. ) ;
#174 = AXIS2_PLACEMENT_3D ( 'NONE', #180, #216, #126 ) ;
#175 = UNCERTAINTY_MEASURE_WITH_UNIT (LENGTH_MEASURE( 1.000000000000000082E-05 ), #112, 'distance_accuracy_value', 'NONE');
#176 = EDGE_LOOP ( 'NONE', ( #65 ) ) ;
#177 = DIRECTION ( 'NONE',  ( -4.285855558155653280E-31, -1.000000000000000000, -1.227517819005651059E-16 ) ) ;
#178 = DIRECTION ( 'NONE',  ( 3.491481338843133355E-15, -1.227517819005651059E-16, 1.000000000000000000 ) ) ;
#179 = CIRCLE ( 'NONE', #41, 1.749999999999997113 ) ;
#180 = CARTESIAN_POINT ( 'NONE',  ( 3.943240970200190237E-14, -5.270827726820021142E-16, 11.29389100932941581 ) ) ;
#181 = DIRECTION ( 'NONE',  ( 3.491481338843133355E-15, -1.227517819005651059E-16, 1.000000000000000000 ) ) ;
#182 = FACE_OUTER_BOUND ( 'NONE', #210, .T. ) ;
#183 = AXIS2_PLACEMENT_3D ( 'NONE', #151, #167, #62 ) ;
#184 = ADVANCED_FACE ( 'NONE', ( #160, #24 ), #9, .T. ) ;
#185 = PERSON_AND_ORGANIZATION_ROLE ( 'design_owner' ) ;
#186 = APPROVAL_STATUS ( 'not_yet_approved' ) ;
#187 = DATE_AND_TIME ( #47, #171 ) ;
#188 = AXIS2_PLACEMENT_3D ( 'NONE', #201, #121, #40 ) ;
#189 = COORDINATED_UNIVERSAL_TIME_OFFSET ( 1, 0, .AHEAD. ) ;
#190 = APPROVAL_ROLE ( '' ) ;
#191 = COORDINATED_UNIVERSAL_TIME_OFFSET ( 1, 0, .AHEAD. ) ;
#192 = EDGE_LOOP ( 'NONE', ( #155 ) ) ;
#193 = AXIS2_PLACEMENT_3D ( 'NONE', #202, #70, #43 ) ;
#194 = DIRECTION ( 'NONE',  ( 3.491481338843133355E-15, -1.227517819005651059E-16, 1.000000000000000000 ) ) ;
#195 = EDGE_LOOP ( 'NONE', ( #21 ) ) ;
#196 = APPLICATION_CONTEXT ( 'configuration controlled 3d designs of mechanical parts and assemblies' ) ;
#197 = ADVANCED_FACE ( 'NONE', ( #182, #73 ), #49, .T. ) ;
#198 = CARTESIAN_POINT ( 'NONE',  ( 2.444036937190192718E-14, 0.0000000000000000000, 6.999999999999998224 ) ) ;
#199 = DIRECTION ( 'NONE',  ( -3.491481338843133355E-15, 1.224646799147353207E-16, -1.000000000000000000 ) ) ;
#200 = FACE_OUTER_BOUND ( 'NONE', #136, .T. ) ;
#201 = CARTESIAN_POINT ( 'NONE',  ( 1.990144363140586139E-13, -6.980486755139912911E-15, 57.00000000000000000 ) ) ;
#202 = CARTESIAN_POINT ( 'NONE',  ( 2.444036937190193033E-14, 2.249639673992779569E-32, 6.999999999999999112 ) ) ;
#203 = PRODUCT_DEFINITION_FORMATION_WITH_SPECIFIED_SOURCE ( 'ANY', '', #214, .NOT_KNOWN. ) ;
#204 = COORDINATED_UNIVERSAL_TIME_OFFSET ( 1, 0, .AHEAD. ) ;
#205 = EDGE_CURVE ( 'NONE', #131, #131, #164, .T. ) ;
#206 = PERSON_AND_ORGANIZATION ( #63, #141 ) ;
#207 = PERSON_AND_ORGANIZATION_ROLE ( 'classification_officer' ) ;
#208 = CALENDAR_DATE ( 2021, 1, 11 ) ;
#209 = APPROVAL_STATUS ( 'not_yet_approved' ) ;
#210 = EDGE_LOOP ( 'NONE', ( #51 ) ) ;
#211 = EDGE_LOOP ( 'NONE', ( #80 ) ) ;
#212 = ADVANCED_BREP_SHAPE_REPRESENTATION ( '43353', ( #117, #119, #183 ), #3 ) ;
#213 = VERTEX_POINT ( 'NONE', #1 ) ;
#214 = PRODUCT ( '43353', '43353', '', ( #152 ) ) ;
#215 = PLANE ( 'NONE',  #217 ) ;
#216 = DIRECTION ( 'NONE',  ( -3.491481338843133355E-15, 1.227517819005651059E-16, -1.000000000000000000 ) ) ;
#217 = AXIS2_PLACEMENT_3D ( 'NONE', #104, #85, #14 ) ;
#218 = DIRECTION ( 'NONE',  ( 3.491481338843133355E-15, -1.227517819005651059E-16, 1.000000000000000000 ) ) ;
#219 = ADVANCED_FACE ( 'NONE', ( #75 ), #124, .T. ) ;
#220 = DATE_AND_TIME ( #18, #130 ) ;
#221 = LOCAL_TIME ( 10, 16, 21.00000000000000000, #189 ) ;
#222 = CC_DESIGN_APPROVAL ( #71, ( #203 ) ) ;
#223 = COORDINATED_UNIVERSAL_TIME_OFFSET ( 1, 0, .AHEAD. ) ;
ENDSEC;
END-ISO-10303-21;
