ISO-10303-21;
HEADER;
FILE_DESCRIPTION (( 'STEP AP203' ),
    '1' );
FILE_NAME ('43352.step',
    '2021-12-06T12:59:44',
    ( '' ),
    ( '' ),
    'SwSTEP 2.0',
    'SolidWorks 2019',
    '' );
FILE_SCHEMA (( 'CONFIG_CONTROL_DESIGN' ));
ENDSEC;

DATA;
#1 = PLANE ( 'NONE',  #24 ) ;
#2 = EDGE_LOOP ( 'NONE', ( #107 ) ) ;
#3 = FACE_OUTER_BOUND ( 'NONE', #79, .T. ) ;
#4 = DATE_AND_TIME ( #147, #96 ) ;
#5 = CIRCLE ( 'NONE', #101, 5.000000000000000000 ) ;
#6 = APPROVAL_STATUS ( 'not_yet_approved' ) ;
#7 = COORDINATED_UNIVERSAL_TIME_OFFSET ( 1, 0, .AHEAD. ) ;
#8 = PERSON_AND_ORGANIZATION ( #155, #46 ) ;
#9 = APPLICATION_PROTOCOL_DEFINITION ( 'international standard', 'config_control_design', 1994, #152 ) ;
#10 = CC_DESIGN_SECURITY_CLASSIFICATION ( #80, ( #50 ) ) ;
#11 = DIRECTION ( 'NONE',  ( -3.491481338843133355E-15, 1.695664798819412019E-16, -1.000000000000000000 ) ) ;
#12 = PRODUCT_DEFINITION ( 'UNKNOWN', '', #50, #133 ) ;
#13 = CARTESIAN_POINT ( 'NONE',  ( -1.184076400402234713E-29, 5.750558219910553972E-31, -3.391329597638824038E-15 ) ) ;
#14 = CC_DESIGN_PERSON_AND_ORGANIZATION_ASSIGNMENT ( #165, #100, ( #80 ) ) ;
#15 = CARTESIAN_POINT ( 'NONE',  ( -4.440286501508379997E-30, 5.000000000000000000, -1.271748599114559113E-15 ) ) ;
#16 = FACE_BOUND ( 'NONE', #140, .T. ) ;
#17 =( NAMED_UNIT ( * ) PLANE_ANGLE_UNIT ( ) SI_UNIT ( $, .RADIAN. ) );
#18 = SECURITY_CLASSIFICATION_LEVEL ( 'unclassified' ) ;
#19 = AXIS2_PLACEMENT_3D ( 'NONE', #106, #11, #168 ) ;
#20 = APPROVAL_PERSON_ORGANIZATION ( #83, #151, #84 ) ;
#21 = DATE_TIME_ROLE ( 'classification_date' ) ;
#22 = DATE_AND_TIME ( #162, #164 ) ;
#23 = AXIS2_PLACEMENT_3D ( 'NONE', #13, #66, #102 ) ;
#24 = AXIS2_PLACEMENT_3D ( 'NONE', #15, #31, #76 ) ;
#25 = APPLICATION_CONTEXT ( 'configuration controlled 3d designs of mechanical parts and assemblies' ) ;
#26 = FACE_BOUND ( 'NONE', #103, .T. ) ;
#27 = CYLINDRICAL_SURFACE ( 'NONE', #44, 20.00000000000000000 ) ;
#28 = DIRECTION ( 'NONE',  ( 0.0000000000000000000, 0.0000000000000000000, 1.000000000000000000 ) ) ;
#29 = DIRECTION ( 'NONE',  ( 5.920382002011174264E-31, 1.000000000000000000, 1.695664798819412019E-16 ) ) ;
#30 = PRODUCT_DEFINITION_SHAPE ( 'NONE', 'NONE',  #12 ) ;
#31 = DIRECTION ( 'NONE',  ( -3.491481338843133355E-15, 1.695664798819412019E-16, -1.000000000000000000 ) ) ;
#32 = CIRCLE ( 'NONE', #23, 20.00000000000000000 ) ;
#33 = UNCERTAINTY_MEASURE_WITH_UNIT (LENGTH_MEASURE( 1.000000000000000082E-05 ), #126, 'distance_accuracy_value', 'NONE');
#34 = MANIFOLD_SOLID_BREP ( 'Corps-Déplacer/Copier1', #109 ) ;
#35 = APPROVAL_DATE_TIME ( #45, #167 ) ;
#36 = PERSON_AND_ORGANIZATION ( #155, #46 ) ;
#37 = DIRECTION ( 'NONE',  ( -3.491481338843133355E-15, 1.695664798819412019E-16, -1.000000000000000000 ) ) ;
#38 = EDGE_LOOP ( 'NONE', ( #117 ) ) ;
#39 = VERTEX_POINT ( 'NONE', #78 ) ;
#40 = ORIENTED_EDGE ( 'NONE', *, *, #114, .T. ) ;
#41 = FACE_OUTER_BOUND ( 'NONE', #116, .T. ) ;
#42 = APPROVAL_ROLE ( '' ) ;
#43 = DATE_AND_TIME ( #110, #131 ) ;
#44 = AXIS2_PLACEMENT_3D ( 'NONE', #160, #142, #49 ) ;
#45 = DATE_AND_TIME ( #99, #105 ) ;
#46 = ORGANIZATION ( 'UNSPECIFIED', 'UNSPECIFIED', '' ) ;
#47 = DIRECTION ( 'NONE',  ( 5.920382002011173388E-31, 1.000000000000000000, 1.695664798819412019E-16 ) ) ;
#48 = DIRECTION ( 'NONE',  ( 5.777789833161707559E-31, 1.000000000000000000, 1.734723475976807094E-16 ) ) ;
#49 = DIRECTION ( 'NONE',  ( 5.920382002011173388E-31, 1.000000000000000000, 1.695664798819412019E-16 ) ) ;
#50 = PRODUCT_DEFINITION_FORMATION_WITH_SPECIFIED_SOURCE ( 'ANY', '', #121, .NOT_KNOWN. ) ;
#51 = ORIENTED_EDGE ( 'NONE', *, *, #134, .T. ) ;
#52 = CARTESIAN_POINT ( 'NONE',  ( 4.538925740496073362E-15, 5.000000000000000888, 1.300000000000000044 ) ) ;
#53 = PERSON_AND_ORGANIZATION ( #155, #46 ) ;
#54 = APPROVAL_ROLE ( '' ) ;
#55 = APPROVAL_DATE_TIME ( #4, #151 ) ;
#56 = APPROVAL_PERSON_ORGANIZATION ( #8, #167, #42 ) ;
#57 = ADVANCED_FACE ( 'NONE', ( #41, #60 ), #27, .T. ) ;
#58 = AXIS2_PLACEMENT_3D ( 'NONE', #64, #169, #63 ) ;
#59 = CC_DESIGN_APPROVAL ( #167, ( #50 ) ) ;
#60 = FACE_OUTER_BOUND ( 'NONE', #38, .T. ) ;
#61 = CC_DESIGN_DATE_AND_TIME_ASSIGNMENT ( #22, #21, ( #80 ) ) ;
#62 = ORIENTED_EDGE ( 'NONE', *, *, #77, .F. ) ;
#63 = DIRECTION ( 'NONE',  ( -5.920382002011173388E-31, -1.000000000000000000, -1.695664798819412019E-16 ) ) ;
#64 = CARTESIAN_POINT ( 'NONE',  ( 4.538925740496068629E-15, 5.000000000000000888, 1.299999999999998712 ) ) ;
#65 =( GEOMETRIC_REPRESENTATION_CONTEXT ( 3 ) GLOBAL_UNCERTAINTY_ASSIGNED_CONTEXT ( ( #33 ) ) GLOBAL_UNIT_ASSIGNED_CONTEXT ( ( #126, #17, #108 ) ) REPRESENTATION_CONTEXT ( 'NONE', 'WORKASPACE' ) );
#66 = DIRECTION ( 'NONE',  ( -3.491481338843133355E-15, 1.695664798819412019E-16, -1.000000000000000000 ) ) ;
#67 = APPLICATION_PROTOCOL_DEFINITION ( 'international standard', 'config_control_design', 1994, #25 ) ;
#68 = DATE_AND_TIME ( #124, #139 ) ;
#69 = APPROVAL ( #148, 'UNSPECIFIED' ) ;
#70 = AXIS2_PLACEMENT_3D ( 'NONE', #87, #28, #136 ) ;
#71 = COORDINATED_UNIVERSAL_TIME_OFFSET ( 1, 0, .AHEAD. ) ;
#72 = SHAPE_DEFINITION_REPRESENTATION ( #30, #144 ) ;
#73 = CC_DESIGN_PERSON_AND_ORGANIZATION_ASSIGNMENT ( #53, #146, ( #121 ) ) ;
#74 = FACE_OUTER_BOUND ( 'NONE', #157, .T. ) ;
#75 = CC_DESIGN_APPROVAL ( #69, ( #12 ) ) ;
#76 = DIRECTION ( 'NONE',  ( 5.920382002011173388E-31, 1.000000000000000000, 1.695664798819412019E-16 ) ) ;
#77 = EDGE_CURVE ( 'NONE', #118, #118, #127, .T. ) ;
#78 = CARTESIAN_POINT ( 'NONE',  ( 4.538925740496072573E-15, 20.00000000000000000, 1.300000000000000044 ) ) ;
#79 = EDGE_LOOP ( 'NONE', ( #51 ) ) ;
#80 = SECURITY_CLASSIFICATION ( '', '', #18 ) ;
#81 = VERTEX_POINT ( 'NONE', #132 ) ;
#82 = CC_DESIGN_PERSON_AND_ORGANIZATION_ASSIGNMENT ( #123, #137, ( #12 ) ) ;
#83 = PERSON_AND_ORGANIZATION ( #155, #46 ) ;
#84 = APPROVAL_ROLE ( '' ) ;
#85 = PERSON_AND_ORGANIZATION_ROLE ( 'design_supplier' ) ;
#86 = PERSON_AND_ORGANIZATION_ROLE ( 'creator' ) ;
#87 = CARTESIAN_POINT ( 'NONE',  ( 0.0000000000000000000, 0.0000000000000000000, 0.0000000000000000000 ) ) ;
#88 = CARTESIAN_POINT ( 'NONE',  ( 0.0000000000000000000, 20.00000000000000000, 0.0000000000000000000 ) ) ;
#89 = PLANE ( 'NONE',  #58 ) ;
#90 = ADVANCED_FACE ( 'NONE', ( #16, #115 ), #89, .T. ) ;
#91 = ORIENTED_EDGE ( 'NONE', *, *, #134, .F. ) ;
#92 = CARTESIAN_POINT ( 'NONE',  ( -2.960191001005586782E-30, 1.437639554977638493E-31, -8.478323994097060096E-16 ) ) ;
#93 = CARTESIAN_POINT ( 'NONE',  ( 4.538925740496060740E-15, -2.204364238465229659E-16, 1.299999999999996492 ) ) ;
#94 = AXIS2_PLACEMENT_3D ( 'NONE', #104, #129, #29 ) ;
#95 = CC_DESIGN_PERSON_AND_ORGANIZATION_ASSIGNMENT ( #36, #86, ( #50 ) ) ;
#96 = LOCAL_TIME ( 13, 59, 44.00000000000000000, #71 ) ;
#97 = COORDINATED_UNIVERSAL_TIME_OFFSET ( 1, 0, .AHEAD. ) ;
#98 = CC_DESIGN_APPROVAL ( #151, ( #80 ) ) ;
#99 = CALENDAR_DATE ( 2021, 6, 12 ) ;
#100 = PERSON_AND_ORGANIZATION_ROLE ( 'classification_officer' ) ;
#101 = AXIS2_PLACEMENT_3D ( 'NONE', #92, #37, #47 ) ;
#102 = DIRECTION ( 'NONE',  ( 5.920382002011173388E-31, 1.000000000000000000, 1.695664798819412019E-16 ) ) ;
#103 = EDGE_LOOP ( 'NONE', ( #91 ) ) ;
#104 = CARTESIAN_POINT ( 'NONE',  ( 0.0000000000000000000, 0.0000000000000000000, 0.0000000000000000000 ) ) ;
#105 = LOCAL_TIME ( 13, 59, 44.00000000000000000, #161 ) ;
#106 = CARTESIAN_POINT ( 'NONE',  ( 4.538925740496070206E-15, -2.204364238465234097E-16, 1.299999999999999156 ) ) ;
#107 = ORIENTED_EDGE ( 'NONE', *, *, #114, .F. ) ;
#108 =( NAMED_UNIT ( * ) SI_UNIT ( $, .STERADIAN. ) SOLID_ANGLE_UNIT ( ) );
#109 = CLOSED_SHELL ( 'NONE', ( #153, #57, #90, #163 ) ) ;
#110 = CALENDAR_DATE ( 2021, 6, 12 ) ;
#111 = DATE_TIME_ROLE ( 'creation_date' ) ;
#112 = AXIS2_PLACEMENT_3D ( 'NONE', #93, #159, #48 ) ;
#113 = EDGE_LOOP ( 'NONE', ( #62 ) ) ;
#114 = EDGE_CURVE ( 'NONE', #39, #39, #154, .T. ) ;
#115 = FACE_OUTER_BOUND ( 'NONE', #2, .T. ) ;
#116 = EDGE_LOOP ( 'NONE', ( #40 ) ) ;
#117 = ORIENTED_EDGE ( 'NONE', *, *, #166, .F. ) ;
#118 = VERTEX_POINT ( 'NONE', #52 ) ;
#119 = PERSON_AND_ORGANIZATION ( #155, #46 ) ;
#120 = APPROVAL_DATE_TIME ( #43, #69 ) ;
#121 = PRODUCT ( '43352', '43352', '', ( #143 ) ) ;
#122 = CC_DESIGN_PERSON_AND_ORGANIZATION_ASSIGNMENT ( #150, #85, ( #50 ) ) ;
#123 = PERSON_AND_ORGANIZATION ( #155, #46 ) ;
#124 = CALENDAR_DATE ( 2021, 6, 12 ) ;
#125 = APPROVAL_PERSON_ORGANIZATION ( #119, #69, #54 ) ;
#126 =( LENGTH_UNIT ( ) NAMED_UNIT ( * ) SI_UNIT ( .MILLI., .METRE. ) );
#127 = CIRCLE ( 'NONE', #19, 5.000000000000000888 ) ;
#128 = FACE_OUTER_BOUND ( 'NONE', #113, .T. ) ;
#129 = DIRECTION ( 'NONE',  ( -3.491481338843133355E-15, 1.695664798819412019E-16, -1.000000000000000000 ) ) ;
#130 = PRODUCT_RELATED_PRODUCT_CATEGORY ( 'detail', '', ( #121 ) ) ;
#131 = LOCAL_TIME ( 13, 59, 44.00000000000000000, #135 ) ;
#132 = CARTESIAN_POINT ( 'NONE',  ( 0.0000000000000000000, 5.000000000000000000, 0.0000000000000000000 ) ) ;
#133 = DESIGN_CONTEXT ( 'detailed design', #25, 'design' ) ;
#134 = EDGE_CURVE ( 'NONE', #81, #81, #5, .T. ) ;
#135 = COORDINATED_UNIVERSAL_TIME_OFFSET ( 1, 0, .AHEAD. ) ;
#136 = DIRECTION ( 'NONE',  ( 1.000000000000000000, 0.0000000000000000000, 0.0000000000000000000 ) ) ;
#137 = PERSON_AND_ORGANIZATION_ROLE ( 'creator' ) ;
#138 = APPROVAL_STATUS ( 'not_yet_approved' ) ;
#139 = LOCAL_TIME ( 13, 59, 44.00000000000000000, #97 ) ;
#140 = EDGE_LOOP ( 'NONE', ( #158 ) ) ;
#141 = CYLINDRICAL_SURFACE ( 'NONE', #94, 5.000000000000000888 ) ;
#142 = DIRECTION ( 'NONE',  ( -3.491481338843133355E-15, 1.695664798819412019E-16, -1.000000000000000000 ) ) ;
#143 = MECHANICAL_CONTEXT ( 'NONE', #152, 'mechanical' ) ;
#144 = ADVANCED_BREP_SHAPE_REPRESENTATION ( '43352', ( #34, #70 ), #65 ) ;
#145 = ORIENTED_EDGE ( 'NONE', *, *, #166, .T. ) ;
#146 = PERSON_AND_ORGANIZATION_ROLE ( 'design_owner' ) ;
#147 = CALENDAR_DATE ( 2021, 6, 12 ) ;
#148 = APPROVAL_STATUS ( 'not_yet_approved' ) ;
#149 = CC_DESIGN_DATE_AND_TIME_ASSIGNMENT ( #68, #111, ( #12 ) ) ;
#150 = PERSON_AND_ORGANIZATION ( #155, #46 ) ;
#151 = APPROVAL ( #6, 'UNSPECIFIED' ) ;
#152 = APPLICATION_CONTEXT ( 'configuration controlled 3d designs of mechanical parts and assemblies' ) ;
#153 = ADVANCED_FACE ( 'NONE', ( #74, #26 ), #1, .T. ) ;
#154 = CIRCLE ( 'NONE', #112, 20.00000000000000000 ) ;
#155 = PERSON ( 'UNSPECIFIED', 'UNSPECIFIED', 'UNSPECIFIED', ('UNSPECIFIED'), ('UNSPECIFIED'), ('UNSPECIFIED') ) ;
#156 = VERTEX_POINT ( 'NONE', #88 ) ;
#157 = EDGE_LOOP ( 'NONE', ( #145 ) ) ;
#158 = ORIENTED_EDGE ( 'NONE', *, *, #77, .T. ) ;
#159 = DIRECTION ( 'NONE',  ( -3.491481338843133355E-15, 1.695664798819412019E-16, -1.000000000000000000 ) ) ;
#160 = CARTESIAN_POINT ( 'NONE',  ( 0.0000000000000000000, 0.0000000000000000000, 0.0000000000000000000 ) ) ;
#161 = COORDINATED_UNIVERSAL_TIME_OFFSET ( 1, 0, .AHEAD. ) ;
#162 = CALENDAR_DATE ( 2021, 6, 12 ) ;
#163 = ADVANCED_FACE ( 'NONE', ( #3, #128 ), #141, .F. ) ;
#164 = LOCAL_TIME ( 13, 59, 44.00000000000000000, #7 ) ;
#165 = PERSON_AND_ORGANIZATION ( #155, #46 ) ;
#166 = EDGE_CURVE ( 'NONE', #156, #156, #32, .T. ) ;
#167 = APPROVAL ( #138, 'UNSPECIFIED' ) ;
#168 = DIRECTION ( 'NONE',  ( 6.162975822039153854E-31, 1.000000000000000000, 1.734723475976806848E-16 ) ) ;
#169 = DIRECTION ( 'NONE',  ( 3.491481338843133355E-15, -1.695664798819412019E-16, 1.000000000000000000 ) ) ;
ENDSEC;
END-ISO-10303-21;
