ISO-10303-21;
HEADER;
FILE_DESCRIPTION (( 'STEP AP203' ),
    '1' );
FILE_NAME ('43350.step',
    '2021-09-03T07:22:31',
    ( '' ),
    ( '' ),
    'SwSTEP 2.0',
    'SolidWorks 2019',
    '' );
FILE_SCHEMA (( 'CONFIG_CONTROL_DESIGN' ));
ENDSEC;

DATA;
#1 = CIRCLE ( 'NONE', #207, 1.149999999999995026 ) ;
#2 = ORIENTED_EDGE ( 'NONE', *, *, #323, .T. ) ;
#3 = CARTESIAN_POINT ( 'NONE',  ( 0.0000000000000000000, 0.0000000000000000000, 0.0000000000000000000 ) ) ;
#4 = DIRECTION ( 'NONE',  ( -3.491481338843133355E-15, 1.224646799147353207E-16, -1.000000000000000000 ) ) ;
#5 = DIRECTION ( 'NONE',  ( -3.491481338843133355E-15, 1.224646799147353207E-16, -1.000000000000000000 ) ) ;
#6 = DIRECTION ( 'NONE',  ( -3.491481338843133355E-15, 1.224646799147353207E-16, -1.000000000000000000 ) ) ;
#7 = CARTESIAN_POINT ( 'NONE',  ( 2.412577684367542475E-15, -8.462183388996734155E-17, 0.6909897118816981099 ) ) ;
#8 = ORIENTED_EDGE ( 'NONE', *, *, #78, .F. ) ;
#9 = VERTEX_POINT ( 'NONE', #98 ) ;
#10 = DIRECTION ( 'NONE',  ( -3.349443381543037362E-31, -1.000000000000000000, -9.427844978134873202E-17 ) ) ;
#11 = EDGE_LOOP ( 'NONE', ( #13, #71, #33, #196 ) ) ;
#12 = CONICAL_SURFACE ( 'NONE', #84, 1.149999999999993694, 1.029744258676649649 ) ;
#13 = ORIENTED_EDGE ( 'NONE', *, *, #78, .T. ) ;
#14 = ORIENTED_EDGE ( 'NONE', *, *, #224, .T. ) ;
#15 = CC_DESIGN_PERSON_AND_ORGANIZATION_ASSIGNMENT ( #286, #296, ( #191 ) ) ;
#16 = DIRECTION ( 'NONE',  ( 0.0000000000000000000, 1.000000000000000000, 0.0000000000000000000 ) ) ;
#17 = ORIENTED_EDGE ( 'NONE', *, *, #323, .F. ) ;
#18 = VECTOR ( 'NONE', #169, 999.9999999999998863 ) ;
#19 = ORIENTED_EDGE ( 'NONE', *, *, #79, .F. ) ;
#20 = ORIENTED_EDGE ( 'NONE', *, *, #285, .T. ) ;
#21 = DIRECTION ( 'NONE',  ( 1.798245827342160317E-15, -0.8571673007021098911, 0.5150380749100582634 ) ) ;
#22 = APPROVAL ( #125, 'UNSPECIFIED' ) ;
#23 = DIRECTION ( 'NONE',  ( 3.491481338843133355E-15, -1.224646799147353207E-16, 1.000000000000000000 ) ) ;
#24 = ADVANCED_FACE ( 'NONE', ( #188 ), #259, .T. ) ;
#25 = CARTESIAN_POINT ( 'NONE',  ( 3.491481338843133355E-14, 1.149999999999993694, 10.00000000000000000 ) ) ;
#26 = CALENDAR_DATE ( 2021, 3, 9 ) ;
#27 = ORIENTED_EDGE ( 'NONE', *, *, #110, .F. ) ;
#28 = FACE_OUTER_BOUND ( 'NONE', #209, .T. ) ;
#29 = EDGE_CURVE ( 'NONE', #135, #9, #282, .T. ) ;
#30 = ORIENTED_EDGE ( 'NONE', *, *, #285, .F. ) ;
#31 = CARTESIAN_POINT ( 'NONE',  ( 1.386118091520723879E-13, -4.861847792614992166E-15, 39.69999999999999574 ) ) ;
#32 = CALENDAR_DATE ( 2021, 3, 9 ) ;
#33 = ORIENTED_EDGE ( 'NONE', *, *, #151, .F. ) ;
#34 = PLANE ( 'NONE',  #327 ) ;
#35 = AXIS2_PLACEMENT_3D ( 'NONE', #3, #6, #111 ) ;
#36 = ORIENTED_EDGE ( 'NONE', *, *, #110, .T. ) ;
#37 = CC_DESIGN_DATE_AND_TIME_ASSIGNMENT ( #183, #73, ( #94 ) ) ;
#38 = PERSON_AND_ORGANIZATION_ROLE ( 'creator' ) ;
#39 = VECTOR ( 'NONE', #222, 1000.000000000000000 ) ;
#40 = PRODUCT_DEFINITION_SHAPE ( 'NONE', 'NONE',  #94 ) ;
#41 = EDGE_CURVE ( 'NONE', #176, #105, #192, .T. ) ;
#42 = PERSON_AND_ORGANIZATION ( #52, #221 ) ;
#43 = DIRECTION ( 'NONE',  ( -3.491481338843133355E-15, 1.224646799147353207E-16, -1.000000000000000000 ) ) ;
#44 = CC_DESIGN_PERSON_AND_ORGANIZATION_ASSIGNMENT ( #231, #264, ( #94 ) ) ;
#45 = LOCAL_TIME ( 9, 22, 31.00000000000000000, #309 ) ;
#46 = PERSON_AND_ORGANIZATION_ROLE ( 'classification_officer' ) ;
#47 = CARTESIAN_POINT ( 'NONE',  ( 3.491481338843133355E-14, 8.623618750305625138E-33, 10.00000000000000000 ) ) ;
#48 = EDGE_CURVE ( 'NONE', #139, #82, #236, .T. ) ;
#49 = CARTESIAN_POINT ( 'NONE',  ( 3.491481338843133355E-14, -1.224646799147353256E-15, 10.00000000000000000 ) ) ;
#50 = EDGE_LOOP ( 'NONE', ( #17, #276, #312 ) ) ;
#51 = DIRECTION ( 'NONE',  ( 0.0000000000000000000, 1.000000000000000000, 0.0000000000000000000 ) ) ;
#52 = PERSON ( 'UNSPECIFIED', 'UNSPECIFIED', 'UNSPECIFIED', ('UNSPECIFIED'), ('UNSPECIFIED'), ('UNSPECIFIED') ) ;
#53 = CARTESIAN_POINT ( 'NONE',  ( 1.392579960328136214E-13, -0.8500000000000036415, 40.00000000000000000 ) ) ;
#54 = DIRECTION ( 'NONE',  ( 0.0000000000000000000, 0.0000000000000000000, 1.000000000000000000 ) ) ;
#55 = CARTESIAN_POINT ( 'NONE',  ( 2.412577684367542475E-15, -8.462183388996734155E-17, 0.6909897118816981099 ) ) ;
#56 = CARTESIAN_POINT ( 'NONE',  ( 2.412577684367542475E-15, -8.462183388996734155E-17, 0.6909897118816981099 ) ) ;
#57 = DIRECTION ( 'NONE',  ( -3.491481338843133355E-15, 1.224646799147353207E-16, -1.000000000000000000 ) ) ;
#58 = MANIFOLD_SOLID_BREP ( 'Corps-Déplacer/Copier1[1]', #220 ) ;
#59 = DIRECTION ( 'NONE',  ( -3.491481338843133355E-15, 1.224646799147353207E-16, -1.000000000000000000 ) ) ;
#60 = ORIENTED_EDGE ( 'NONE', *, *, #106, .F. ) ;
#61 = DIRECTION ( 'NONE',  ( -2.382254525458724175E-15, -0.7071067811865451302, -0.7071067811865499042 ) ) ;
#62 = CLOSED_SHELL ( 'NONE', ( #144, #122, #165, #164, #313 ) ) ;
#63 = LOCAL_TIME ( 9, 22, 31.00000000000000000, #331 ) ;
#64 = CARTESIAN_POINT ( 'NONE',  ( 2.412577684367542081E-15, -1.149999999999993694, 0.6909897118816979988 ) ) ;
#65 = ADVANCED_FACE ( 'NONE', ( #150 ), #131, .T. ) ;
#66 = DIRECTION ( 'NONE',  ( -3.491481338843133355E-15, 1.224646799147353207E-16, -1.000000000000000000 ) ) ;
#67 = EDGE_LOOP ( 'NONE', ( #156, #2, #335 ) ) ;
#68 = CARTESIAN_POINT ( 'NONE',  ( 1.396592535537253342E-13, 6.373979076312812726E-33, 40.00000000000000000 ) ) ;
#69 = DIRECTION ( 'NONE',  ( -3.491481338843133355E-15, 1.224646799147353207E-16, -1.000000000000000000 ) ) ;
#70 = DIRECTION ( 'NONE',  ( -3.491481338843133355E-15, 1.224646799147353207E-16, -1.000000000000000000 ) ) ;
#71 = ORIENTED_EDGE ( 'NONE', *, *, #79, .T. ) ;
#72 = AXIS2_PLACEMENT_3D ( 'NONE', #325, #92, #179 ) ;
#73 = DATE_TIME_ROLE ( 'creation_date' ) ;
#74 = ORIENTED_EDGE ( 'NONE', *, *, #290, .F. ) ;
#75 = CYLINDRICAL_SURFACE ( 'NONE', #268, 1.149999999999994360 ) ;
#76 = DIRECTION ( 'NONE',  ( 3.491481338843133355E-15, -1.224646799147353207E-16, 1.000000000000000000 ) ) ;
#77 = CARTESIAN_POINT ( 'NONE',  ( 8.690414565215365090E-14, -1.150000000000003242, 39.69999999999999574 ) ) ;
#78 = EDGE_CURVE ( 'NONE', #135, #284, #147, .T. ) ;
#79 = EDGE_CURVE ( 'NONE', #284, #225, #114, .T. ) ;
#80 = CIRCLE ( 'NONE', #254, 1.149999999999993694 ) ;
#81 = PERSON_AND_ORGANIZATION ( #52, #221 ) ;
#82 = VERTEX_POINT ( 'NONE', #253 ) ;
#83 = ORIENTED_EDGE ( 'NONE', *, *, #48, .F. ) ;
#84 = AXIS2_PLACEMENT_3D ( 'NONE', #56, #226, #10 ) ;
#85 = APPROVAL_PERSON_ORGANIZATION ( #265, #240, #194 ) ;
#86 = SHAPE_DEFINITION_REPRESENTATION ( #40, #239 ) ;
#87 = DIRECTION ( 'NONE',  ( 3.349443381543037362E-31, 1.000000000000000000, 9.427844978134873202E-17 ) ) ;
#88 = DIRECTION ( 'NONE',  ( -3.491481338843133355E-15, 1.224646799147353207E-16, -1.000000000000000000 ) ) ;
#89 = UNCERTAINTY_MEASURE_WITH_UNIT (LENGTH_MEASURE( 1.000000000000000082E-05 ), #195, 'distance_accuracy_value', 'NONE');
#90 = DATE_AND_TIME ( #223, #269 ) ;
#91 = CARTESIAN_POINT ( 'NONE',  ( 1.396592535537253342E-13, -4.898587196589413026E-15, 40.00000000000000000 ) ) ;
#92 = DIRECTION ( 'NONE',  ( -3.491481338843133355E-15, 1.224646799147353207E-16, -1.000000000000000000 ) ) ;
#93 = CC_DESIGN_PERSON_AND_ORGANIZATION_ASSIGNMENT ( #272, #38, ( #238 ) ) ;
#94 = PRODUCT_DEFINITION ( 'UNKNOWN', '', #238, #337 ) ;
#95 = FACE_OUTER_BOUND ( 'NONE', #67, .T. ) ;
#96 = CARTESIAN_POINT ( 'NONE',  ( 2.553412066269487659E-15, 1.149999999999993694, 0.6909897118816982209 ) ) ;
#97 = APPROVAL_ROLE ( '' ) ;
#98 = CARTESIAN_POINT ( 'NONE',  ( 1.386118091520723879E-13, 1.149999999999993694, 39.69999999999999574 ) ) ;
#99 = APPROVAL_PERSON_ORGANIZATION ( #228, #334, #97 ) ;
#100 = APPROVAL_STATUS ( 'not_yet_approved' ) ;
#101 = CC_DESIGN_APPROVAL ( #334, ( #94 ) ) ;
#102 = CARTESIAN_POINT ( 'NONE',  ( 4.917206162781487771E-31, 1.149999999999996803, 1.408343819019452330E-16 ) ) ;
#103 = LINE ( 'NONE', #102, #127 ) ;
#104 = CARTESIAN_POINT ( 'NONE',  ( 4.917206162781478138E-31, 1.149999999999994360, 1.408343819019449372E-16 ) ) ;
#105 = VERTEX_POINT ( 'NONE', #308 ) ;
#106 = EDGE_CURVE ( 'NONE', #105, #176, #80, .T. ) ;
#107 = CARTESIAN_POINT ( 'NONE',  ( 2.412577684367542475E-15, -8.462183388996734155E-17, 0.6909897118816981099 ) ) ;
#108 = AXIS2_PLACEMENT_3D ( 'NONE', #119, #298, #121 ) ;
#109 = ORIENTED_EDGE ( 'NONE', *, *, #174, .T. ) ;
#110 = EDGE_CURVE ( 'NONE', #225, #9, #229, .T. ) ;
#111 = DIRECTION ( 'NONE',  ( 4.275831445896957731E-31, 1.000000000000000000, 1.224646799147353207E-16 ) ) ;
#112 = LINE ( 'NONE', #315, #216 ) ;
#113 = ORIENTED_EDGE ( 'NONE', *, *, #255, .T. ) ;
#114 = LINE ( 'NONE', #257, #316 ) ;
#115 = CONICAL_SURFACE ( 'NONE', #301, 0.8499999999999987566, 0.7853981633974450594 ) ;
#116 = CARTESIAN_POINT ( 'NONE',  ( 1.408343819019447400E-16, -1.149999999999996803, -1.408343819019457014E-16 ) ) ;
#117 = ORIENTED_EDGE ( 'NONE', *, *, #178, .T. ) ;
#118 = COORDINATED_UNIVERSAL_TIME_OFFSET ( 1, 0, .AHEAD. ) ;
#119 = CARTESIAN_POINT ( 'NONE',  ( 0.0000000000000000000, 0.0000000000000000000, 0.0000000000000000000 ) ) ;
#120 = CIRCLE ( 'NONE', #217, 1.149999999999995026 ) ;
#121 = DIRECTION ( 'NONE',  ( 4.275831445896957731E-31, 1.000000000000000000, 1.224646799147353207E-16 ) ) ;
#122 = ADVANCED_FACE ( 'NONE', ( #95 ), #12, .T. ) ;
#123 = ORIENTED_EDGE ( 'NONE', *, *, #41, .F. ) ;
#124 = LINE ( 'NONE', #104, #39 ) ;
#125 = APPROVAL_STATUS ( 'not_yet_approved' ) ;
#126 = CARTESIAN_POINT ( 'NONE',  ( 1.396592535537253342E-13, -4.898587196589413026E-15, 40.00000000000000000 ) ) ;
#127 = VECTOR ( 'NONE', #246, 1000.000000000000000 ) ;
#128 = DATE_AND_TIME ( #26, #45 ) ;
#129 = CARTESIAN_POINT ( 'NONE',  ( 3.491481338843133355E-14, -1.224646799147353256E-15, 10.00000000000000000 ) ) ;
#130 = PRODUCT_RELATED_PRODUCT_CATEGORY ( 'detail', '', ( #191 ) ) ;
#131 = CYLINDRICAL_SURFACE ( 'NONE', #35, 1.149999999999996803 ) ;
#132 = AXIS2_PLACEMENT_3D ( 'NONE', #213, #266, #16 ) ;
#133 = DATE_AND_TIME ( #32, #205 ) ;
#134 = DIRECTION ( 'NONE',  ( 0.0000000000000000000, 1.000000000000000000, 0.0000000000000000000 ) ) ;
#135 = VERTEX_POINT ( 'NONE', #153 ) ;
#136 = CC_DESIGN_APPROVAL ( #240, ( #238 ) ) ;
#137 = APPROVAL_STATUS ( 'not_yet_approved' ) ;
#138 = ORIENTED_EDGE ( 'NONE', *, *, #151, .T. ) ;
#139 = VERTEX_POINT ( 'NONE', #249 ) ;
#140 = FACE_OUTER_BOUND ( 'NONE', #155, .T. ) ;
#141 = ADVANCED_FACE ( 'NONE', ( #28 ), #34, .F. ) ;
#142 = CONICAL_SURFACE ( 'NONE', #332, 1.149999999999993694, 1.029744258676649649 ) ;
#143 = LOCAL_TIME ( 9, 22, 31.00000000000000000, #118 ) ;
#144 = ADVANCED_FACE ( 'NONE', ( #166 ), #75, .T. ) ;
#145 = ORIENTED_EDGE ( 'NONE', *, *, #190, .F. ) ;
#146 = PERSON_AND_ORGANIZATION_ROLE ( 'design_supplier' ) ;
#147 = CIRCLE ( 'NONE', #161, 0.8499999999999987566 ) ;
#148 = LINE ( 'NONE', #116, #310 ) ;
#149 = DIRECTION ( 'NONE',  ( -4.275831445896958607E-31, -1.000000000000000000, -1.224646799147353207E-16 ) ) ;
#150 = FACE_OUTER_BOUND ( 'NONE', #303, .T. ) ;
#151 = EDGE_CURVE ( 'NONE', #9, #225, #167, .T. ) ;
#152 = VERTEX_POINT ( 'NONE', #233 ) ;
#153 = CARTESIAN_POINT ( 'NONE',  ( 1.396592535537253342E-13, 0.8499999999999938716, 40.00000000000000000 ) ) ;
#154 = APPROVAL_ROLE ( '' ) ;
#155 = EDGE_LOOP ( 'NONE', ( #74, #36, #297, #252 ) ) ;
#156 = ORIENTED_EDGE ( 'NONE', *, *, #277, .F. ) ;
#157 = DIRECTION ( 'NONE',  ( 0.0000000000000000000, 1.000000000000000000, 0.0000000000000000000 ) ) ;
#158 = CC_DESIGN_APPROVAL ( #22, ( #333 ) ) ;
#159 = APPLICATION_CONTEXT ( 'configuration controlled 3d designs of mechanical parts and assemblies' ) ;
#160 = MANIFOLD_SOLID_BREP ( 'Corps-Déplacer/Copier1[2]', #62 ) ;
#161 = AXIS2_PLACEMENT_3D ( 'NONE', #91, #5, #311 ) ;
#162 = APPLICATION_PROTOCOL_DEFINITION ( 'international standard', 'config_control_design', 1994, #300 ) ;
#163 = DIRECTION ( 'NONE',  ( 4.275831445896958607E-31, 1.000000000000000000, 1.224646799147353207E-16 ) ) ;
#164 = ADVANCED_FACE ( 'NONE', ( #237 ), #210, .T. ) ;
#165 = ADVANCED_FACE ( 'NONE', ( #319 ), #142, .T. ) ;
#166 = FACE_OUTER_BOUND ( 'NONE', #262, .T. ) ;
#167 = CIRCLE ( 'NONE', #132, 1.149999999999998357 ) ;
#168 = DIRECTION ( 'NONE',  ( -4.275831445896958607E-31, -1.000000000000000000, -1.224646799147353207E-16 ) ) ;
#169 = DIRECTION ( 'NONE',  ( 1.903218546456022717E-15, 0.8571673007021097801, 0.5150380749100585964 ) ) ;
#170 = ADVANCED_FACE ( 'NONE', ( #336 ), #115, .T. ) ;
#171 = FACE_OUTER_BOUND ( 'NONE', #227, .T. ) ;
#172 = PLANE ( 'NONE',  #322 ) ;
#173 = VECTOR ( 'NONE', #21, 1000.000000000000000 ) ;
#174 = EDGE_CURVE ( 'NONE', #139, #176, #112, .T. ) ;
#175 = DIRECTION ( 'NONE',  ( 0.0000000000000000000, 1.000000000000000000, 0.0000000000000000000 ) ) ;
#176 = VERTEX_POINT ( 'NONE', #64 ) ;
#177 = AXIS2_PLACEMENT_3D ( 'NONE', #31, #66, #134 ) ;
#178 = EDGE_CURVE ( 'NONE', #152, #211, #1, .T. ) ;
#179 = DIRECTION ( 'NONE',  ( 4.275831445896958607E-31, 1.000000000000000000, 1.224646799147353207E-16 ) ) ;
#180 = ORIENTED_EDGE ( 'NONE', *, *, #255, .F. ) ;
#181 = DIRECTION ( 'NONE',  ( 3.491481338843133355E-15, -1.224646799147353207E-16, 1.000000000000000000 ) ) ;
#182 = DIRECTION ( 'NONE',  ( -3.491481338843133355E-15, 1.224646799147353207E-16, -1.000000000000000000 ) ) ;
#183 = DATE_AND_TIME ( #212, #143 ) ;
#184 = DIRECTION ( 'NONE',  ( -3.349443381543037362E-31, -1.000000000000000000, -9.427844978134873202E-17 ) ) ;
#185 = ORIENTED_EDGE ( 'NONE', *, *, #48, .T. ) ;
#186 = APPROVAL_DATE_TIME ( #133, #334 ) ;
#187 = CC_DESIGN_PERSON_AND_ORGANIZATION_ASSIGNMENT ( #275, #46, ( #333 ) ) ;
#188 = FACE_OUTER_BOUND ( 'NONE', #330, .T. ) ;
#189 = AXIS2_PLACEMENT_3D ( 'NONE', #215, #69, #324 ) ;
#190 = EDGE_CURVE ( 'NONE', #9, #211, #103, .T. ) ;
#191 = PRODUCT ( '43350', '43350', '', ( #234 ) ) ;
#192 = CIRCLE ( 'NONE', #274, 1.149999999999993694 ) ;
#193 = AXIS2_PLACEMENT_3D ( 'NONE', #129, #197, #203 ) ;
#194 = APPROVAL_ROLE ( '' ) ;
#195 =( LENGTH_UNIT ( ) NAMED_UNIT ( * ) SI_UNIT ( .MILLI., .METRE. ) );
#196 = ORIENTED_EDGE ( 'NONE', *, *, #29, .F. ) ;
#197 = DIRECTION ( 'NONE',  ( -3.491481338843133355E-15, 1.224646799147353207E-16, -1.000000000000000000 ) ) ;
#198 =( NAMED_UNIT ( * ) PLANE_ANGLE_UNIT ( ) SI_UNIT ( $, .RADIAN. ) );
#199 = APPROVAL_DATE_TIME ( #267, #240 ) ;
#200 = CC_DESIGN_DATE_AND_TIME_ASSIGNMENT ( #90, #244, ( #333 ) ) ;
#201 = APPLICATION_PROTOCOL_DEFINITION ( 'international standard', 'config_control_design', 1994, #159 ) ;
#202 = APPROVAL_PERSON_ORGANIZATION ( #81, #22, #154 ) ;
#203 = DIRECTION ( 'NONE',  ( 0.0000000000000000000, 1.000000000000000000, 0.0000000000000000000 ) ) ;
#204 = CARTESIAN_POINT ( 'NONE',  ( 1.396592535537253342E-13, -4.898587196589413026E-15, 40.00000000000000000 ) ) ;
#205 = LOCAL_TIME ( 9, 22, 31.00000000000000000, #289 ) ;
#206 = DIRECTION ( 'NONE',  ( -3.491481338843133355E-15, 1.224646799147353207E-16, -1.000000000000000000 ) ) ;
#207 = AXIS2_PLACEMENT_3D ( 'NONE', #304, #270, #51 ) ;
#208 = DIRECTION ( 'NONE',  ( -3.491481338843133355E-15, 1.224646799147353207E-16, -1.000000000000000000 ) ) ;
#209 = EDGE_LOOP ( 'NONE', ( #8, #283 ) ) ;
#210 = CYLINDRICAL_SURFACE ( 'NONE', #72, 1.149999999999994360 ) ;
#211 = VERTEX_POINT ( 'NONE', #25 ) ;
#212 = CALENDAR_DATE ( 2021, 3, 9 ) ;
#213 = CARTESIAN_POINT ( 'NONE',  ( 1.386118091520723879E-13, -4.861847792614992166E-15, 39.69999999999999574 ) ) ;
#214 = ORIENTED_EDGE ( 'NONE', *, *, #224, .F. ) ;
#215 = CARTESIAN_POINT ( 'NONE',  ( 1.396592535537253342E-13, -4.898587196589413026E-15, 40.00000000000000000 ) ) ;
#216 = VECTOR ( 'NONE', #182, 1000.000000000000000 ) ;
#217 = AXIS2_PLACEMENT_3D ( 'NONE', #273, #43, #219 ) ;
#218 = ORIENTED_EDGE ( 'NONE', *, *, #290, .T. ) ;
#219 = DIRECTION ( 'NONE',  ( 0.0000000000000000000, 1.000000000000000000, 0.0000000000000000000 ) ) ;
#220 = CLOSED_SHELL ( 'NONE', ( #170, #65, #247, #299, #24, #141 ) ) ;
#221 = ORGANIZATION ( 'UNSPECIFIED', 'UNSPECIFIED', '' ) ;
#222 = DIRECTION ( 'NONE',  ( -3.491481338843133355E-15, 1.224646799147353207E-16, -1.000000000000000000 ) ) ;
#223 = CALENDAR_DATE ( 2021, 3, 9 ) ;
#224 = EDGE_CURVE ( 'NONE', #82, #139, #242, .T. ) ;
#225 = VERTEX_POINT ( 'NONE', #77 ) ;
#226 = DIRECTION ( 'NONE',  ( 3.491481338843133355E-15, -1.224646799147353207E-16, 1.000000000000000000 ) ) ;
#227 = EDGE_LOOP ( 'NONE', ( #113, #117 ) ) ;
#228 = PERSON_AND_ORGANIZATION ( #52, #221 ) ;
#229 = CIRCLE ( 'NONE', #177, 1.149999999999998357 ) ;
#230 = CYLINDRICAL_SURFACE ( 'NONE', #108, 1.149999999999996803 ) ;
#231 = PERSON_AND_ORGANIZATION ( #52, #221 ) ;
#232 =( NAMED_UNIT ( * ) SI_UNIT ( $, .STERADIAN. ) SOLID_ANGLE_UNIT ( ) );
#233 = CARTESIAN_POINT ( 'NONE',  ( 8.690414565215376449E-14, -1.149999999999996358, 10.00000000000000000 ) ) ;
#234 = MECHANICAL_CONTEXT ( 'NONE', #159, 'mechanical' ) ;
#235 = COORDINATED_UNIVERSAL_TIME_OFFSET ( 1, 0, .AHEAD. ) ;
#236 = CIRCLE ( 'NONE', #280, 1.149999999999995026 ) ;
#237 = FACE_OUTER_BOUND ( 'NONE', #258, .T. ) ;
#238 = PRODUCT_DEFINITION_FORMATION_WITH_SPECIFIED_SOURCE ( 'ANY', '', #191, .NOT_KNOWN. ) ;
#239 = ADVANCED_BREP_SHAPE_REPRESENTATION ( '43350', ( #58, #160, #281 ), #287 ) ;
#240 = APPROVAL ( #100, 'UNSPECIFIED' ) ;
#241 = AXIS2_PLACEMENT_3D ( 'NONE', #126, #4, #248 ) ;
#242 = CIRCLE ( 'NONE', #193, 1.149999999999995026 ) ;
#243 = SECURITY_CLASSIFICATION_LEVEL ( 'unclassified' ) ;
#244 = DATE_TIME_ROLE ( 'classification_date' ) ;
#245 = EDGE_LOOP ( 'NONE', ( #214, #83 ) ) ;
#246 = DIRECTION ( 'NONE',  ( -3.491481338843133355E-15, 1.224646799147353207E-16, -1.000000000000000000 ) ) ;
#247 = ADVANCED_FACE ( 'NONE', ( #171 ), #172, .F. ) ;
#248 = DIRECTION ( 'NONE',  ( 0.0000000000000000000, 1.000000000000000000, 0.0000000000000000000 ) ) ;
#249 = CARTESIAN_POINT ( 'NONE',  ( 1.880452991830136269E-14, -1.149999999999996358, 10.00000000000000000 ) ) ;
#250 = APPROVAL_DATE_TIME ( #128, #22 ) ;
#251 = ORIENTED_EDGE ( 'NONE', *, *, #29, .T. ) ;
#252 = ORIENTED_EDGE ( 'NONE', *, *, #178, .F. ) ;
#253 = CARTESIAN_POINT ( 'NONE',  ( 3.491481338843133355E-14, 1.149999999999993694, 10.00000000000000000 ) ) ;
#254 = AXIS2_PLACEMENT_3D ( 'NONE', #107, #206, #288 ) ;
#255 = EDGE_CURVE ( 'NONE', #211, #152, #120, .T. ) ;
#256 = ORIENTED_EDGE ( 'NONE', *, *, #174, .F. ) ;
#257 = CARTESIAN_POINT ( 'NONE',  ( 1.397633485316528503E-13, -0.8500000000000036415, 40.00000000000000000 ) ) ;
#258 = EDGE_LOOP ( 'NONE', ( #256, #185, #20, #123 ) ) ;
#259 = CONICAL_SURFACE ( 'NONE', #241, 0.8499999999999987566, 0.7853981633974450594 ) ;
#260 = AXIS2_PLACEMENT_3D ( 'NONE', #321, #76, #168 ) ;
#261 = DIRECTION ( 'NONE',  ( 4.275831445896958607E-31, 1.000000000000000000, 1.224646799147353207E-16 ) ) ;
#262 = EDGE_LOOP ( 'NONE', ( #14, #109, #60, #30 ) ) ;
#263 = PLANE ( 'NONE',  #260 ) ;
#264 = PERSON_AND_ORGANIZATION_ROLE ( 'creator' ) ;
#265 = PERSON_AND_ORGANIZATION ( #52, #221 ) ;
#266 = DIRECTION ( 'NONE',  ( -3.491481338843133355E-15, 1.224646799147353207E-16, -1.000000000000000000 ) ) ;
#267 = DATE_AND_TIME ( #329, #63 ) ;
#268 = AXIS2_PLACEMENT_3D ( 'NONE', #320, #70, #261 ) ;
#269 = LOCAL_TIME ( 9, 22, 31.00000000000000000, #235 ) ;
#270 = DIRECTION ( 'NONE',  ( -3.491481338843133355E-15, 1.224646799147353207E-16, -1.000000000000000000 ) ) ;
#271 = CC_DESIGN_PERSON_AND_ORGANIZATION_ASSIGNMENT ( #42, #146, ( #238 ) ) ;
#272 = PERSON_AND_ORGANIZATION ( #52, #221 ) ;
#273 = CARTESIAN_POINT ( 'NONE',  ( 3.491481338843133355E-14, -1.224646799147353256E-15, 10.00000000000000000 ) ) ;
#274 = AXIS2_PLACEMENT_3D ( 'NONE', #55, #57, #87 ) ;
#275 = PERSON_AND_ORGANIZATION ( #52, #221 ) ;
#276 = ORIENTED_EDGE ( 'NONE', *, *, #277, .T. ) ;
#277 = EDGE_CURVE ( 'NONE', #292, #176, #307, .T. ) ;
#278 = CARTESIAN_POINT ( 'NONE',  ( 2.412577684367542081E-15, -1.149999999999993694, 0.6909897118816979988 ) ) ;
#279 = CARTESIAN_POINT ( 'NONE',  ( 0.0000000000000000000, 0.0000000000000000000, 0.0000000000000000000 ) ) ;
#280 = AXIS2_PLACEMENT_3D ( 'NONE', #49, #59, #175 ) ;
#281 = AXIS2_PLACEMENT_3D ( 'NONE', #279, #54, #314 ) ;
#282 = LINE ( 'NONE', #305, #293 ) ;
#283 = ORIENTED_EDGE ( 'NONE', *, *, #317, .F. ) ;
#284 = VERTEX_POINT ( 'NONE', #53 ) ;
#285 = EDGE_CURVE ( 'NONE', #82, #105, #124, .T. ) ;
#286 = PERSON_AND_ORGANIZATION ( #52, #221 ) ;
#287 =( GEOMETRIC_REPRESENTATION_CONTEXT ( 3 ) GLOBAL_UNCERTAINTY_ASSIGNED_CONTEXT ( ( #89 ) ) GLOBAL_UNIT_ASSIGNED_CONTEXT ( ( #195, #198, #232 ) ) REPRESENTATION_CONTEXT ( 'NONE', 'WORKASPACE' ) );
#288 = DIRECTION ( 'NONE',  ( 3.349443381543037362E-31, 1.000000000000000000, 9.427844978134873202E-17 ) ) ;
#289 = COORDINATED_UNIVERSAL_TIME_OFFSET ( 1, 0, .AHEAD. ) ;
#290 = EDGE_CURVE ( 'NONE', #225, #152, #148, .T. ) ;
#291 = DIRECTION ( 'NONE',  ( -3.491481338843133355E-15, 1.224646799147353207E-16, -1.000000000000000000 ) ) ;
#292 = VERTEX_POINT ( 'NONE', #295 ) ;
#293 = VECTOR ( 'NONE', #302, 1000.000000000000000 ) ;
#294 = CIRCLE ( 'NONE', #189, 0.8499999999999987566 ) ;
#295 = CARTESIAN_POINT ( 'NONE',  ( 0.0000000000000000000, 0.0000000000000000000, 0.0000000000000000000 ) ) ;
#296 = PERSON_AND_ORGANIZATION_ROLE ( 'design_owner' ) ;
#297 = ORIENTED_EDGE ( 'NONE', *, *, #190, .T. ) ;
#298 = DIRECTION ( 'NONE',  ( -3.491481338843133355E-15, 1.224646799147353207E-16, -1.000000000000000000 ) ) ;
#299 = ADVANCED_FACE ( 'NONE', ( #140 ), #230, .T. ) ;
#300 = APPLICATION_CONTEXT ( 'configuration controlled 3d designs of mechanical parts and assemblies' ) ;
#301 = AXIS2_PLACEMENT_3D ( 'NONE', #204, #88, #157 ) ;
#302 = DIRECTION ( 'NONE',  ( -2.468850131082272838E-15, 0.7071067811865453523, -0.7071067811865496822 ) ) ;
#303 = EDGE_LOOP ( 'NONE', ( #138, #218, #180, #145 ) ) ;
#304 = CARTESIAN_POINT ( 'NONE',  ( 3.491481338843133355E-14, -1.224646799147353256E-15, 10.00000000000000000 ) ) ;
#305 = CARTESIAN_POINT ( 'NONE',  ( 1.396592535537253342E-13, 0.8499999999999938716, 40.00000000000000000 ) ) ;
#306 = ORIENTED_EDGE ( 'NONE', *, *, #317, .T. ) ;
#307 = LINE ( 'NONE', #278, #173 ) ;
#308 = CARTESIAN_POINT ( 'NONE',  ( 2.553412066269487659E-15, 1.149999999999993694, 0.6909897118816982209 ) ) ;
#309 = COORDINATED_UNIVERSAL_TIME_OFFSET ( 1, 0, .AHEAD. ) ;
#310 = VECTOR ( 'NONE', #208, 1000.000000000000000 ) ;
#311 = DIRECTION ( 'NONE',  ( 0.0000000000000000000, 1.000000000000000000, 0.0000000000000000000 ) ) ;
#312 = ORIENTED_EDGE ( 'NONE', *, *, #41, .T. ) ;
#313 = ADVANCED_FACE ( 'NONE', ( #326 ), #263, .T. ) ;
#314 = DIRECTION ( 'NONE',  ( 1.000000000000000000, 0.0000000000000000000, 0.0000000000000000000 ) ) ;
#315 = CARTESIAN_POINT ( 'NONE',  ( 1.408343819019444442E-16, -1.149999999999994360, -1.408343819019454056E-16 ) ) ;
#316 = VECTOR ( 'NONE', #61, 1000.000000000000114 ) ;
#317 = EDGE_CURVE ( 'NONE', #284, #135, #294, .T. ) ;
#318 = LINE ( 'NONE', #96, #18 ) ;
#319 = FACE_OUTER_BOUND ( 'NONE', #50, .T. ) ;
#320 = CARTESIAN_POINT ( 'NONE',  ( 0.0000000000000000000, 0.0000000000000000000, 0.0000000000000000000 ) ) ;
#321 = CARTESIAN_POINT ( 'NONE',  ( 3.491481338843133355E-14, 8.623618750305625138E-33, 10.00000000000000000 ) ) ;
#322 = AXIS2_PLACEMENT_3D ( 'NONE', #47, #23, #149 ) ;
#323 = EDGE_CURVE ( 'NONE', #292, #105, #318, .T. ) ;
#324 = DIRECTION ( 'NONE',  ( 0.0000000000000000000, 1.000000000000000000, 0.0000000000000000000 ) ) ;
#325 = CARTESIAN_POINT ( 'NONE',  ( 0.0000000000000000000, 0.0000000000000000000, 0.0000000000000000000 ) ) ;
#326 = FACE_OUTER_BOUND ( 'NONE', #245, .T. ) ;
#327 = AXIS2_PLACEMENT_3D ( 'NONE', #68, #291, #163 ) ;
#328 = CC_DESIGN_SECURITY_CLASSIFICATION ( #333, ( #238 ) ) ;
#329 = CALENDAR_DATE ( 2021, 3, 9 ) ;
#330 = EDGE_LOOP ( 'NONE', ( #19, #306, #251, #27 ) ) ;
#331 = COORDINATED_UNIVERSAL_TIME_OFFSET ( 1, 0, .AHEAD. ) ;
#332 = AXIS2_PLACEMENT_3D ( 'NONE', #7, #181, #184 ) ;
#333 = SECURITY_CLASSIFICATION ( '', '', #243 ) ;
#334 = APPROVAL ( #137, 'UNSPECIFIED' ) ;
#335 = ORIENTED_EDGE ( 'NONE', *, *, #106, .T. ) ;
#336 = FACE_OUTER_BOUND ( 'NONE', #11, .T. ) ;
#337 = DESIGN_CONTEXT ( 'detailed design', #300, 'design' ) ;
ENDSEC;
END-ISO-10303-21;
