ISO-10303-21;
HEADER;
FILE_DESCRIPTION (( 'STEP AP203' ),
    '1' );
FILE_NAME ('43334.step',
    '2021-10-13T11:36:09',
    ( '' ),
    ( '' ),
    'SwSTEP 2.0',
    'SolidWorks 2019',
    '' );
FILE_SCHEMA (( 'CONFIG_CONTROL_DESIGN' ));
ENDSEC;

DATA;
#1 = EDGE_LOOP ( 'NONE', ( #188 ) ) ;
#2 = ORIENTED_EDGE ( 'NONE', *, *, #203, .F. ) ;
#3 = APPROVAL_ROLE ( '' ) ;
#4 = APPLICATION_CONTEXT ( 'configuration controlled 3d designs of mechanical parts and assemblies' ) ;
#5 = VERTEX_POINT ( 'NONE', #56 ) ;
#6 = PLANE ( 'NONE',  #135 ) ;
#7 = CARTESIAN_POINT ( 'NONE',  ( 3.812385842504470444E-15, -1.337204947137066162E-16, 1.091910702798619459 ) ) ;
#8 = APPROVAL_PERSON_ORGANIZATION ( #43, #30, #168 ) ;
#9 = DIRECTION ( 'NONE',  ( 0.0000000000000000000, 1.000000000000000000, 0.0000000000000000000 ) ) ;
#10 = CALENDAR_DATE ( 2021, 13, 10 ) ;
#11 = MECHANICAL_CONTEXT ( 'NONE', #4, 'mechanical' ) ;
#12 = CC_DESIGN_APPROVAL ( #30, ( #99 ) ) ;
#13 =( NAMED_UNIT ( * ) PLANE_ANGLE_UNIT ( ) SI_UNIT ( $, .RADIAN. ) );
#14 = PERSON_AND_ORGANIZATION ( #129, #143 ) ;
#15 = UNCERTAINTY_MEASURE_WITH_UNIT (LENGTH_MEASURE( 1.000000000000000082E-05 ), #124, 'distance_accuracy_value', 'NONE');
#16 = DATE_TIME_ROLE ( 'classification_date' ) ;
#17 = ADVANCED_FACE ( 'NONE', ( #101 ), #32, .T. ) ;
#18 = FACE_OUTER_BOUND ( 'NONE', #163, .T. ) ;
#19 = CARTESIAN_POINT ( 'NONE',  ( 7.681258945454893382E-14, 2.249639673992779843E-32, 22.00000000000000000 ) ) ;
#20 =( GEOMETRIC_REPRESENTATION_CONTEXT ( 3 ) GLOBAL_UNCERTAINTY_ASSIGNED_CONTEXT ( ( #15 ) ) GLOBAL_UNIT_ASSIGNED_CONTEXT ( ( #124, #13, #138 ) ) REPRESENTATION_CONTEXT ( 'NONE', 'WORKASPACE' ) );
#21 = CARTESIAN_POINT ( 'NONE',  ( 7.681258945454893382E-14, 2.999999999999993339, 22.00000000000000000 ) ) ;
#22 = FACE_OUTER_BOUND ( 'NONE', #41, .T. ) ;
#23 = PRODUCT ( '43334', '43334', '', ( #11 ) ) ;
#24 = FACE_OUTER_BOUND ( 'NONE', #158, .T. ) ;
#25 = PERSON_AND_ORGANIZATION ( #129, #143 ) ;
#26 = ADVANCED_FACE ( 'NONE', ( #52, #118 ), #164, .T. ) ;
#27 = PERSON_AND_ORGANIZATION ( #129, #143 ) ;
#28 = DIRECTION ( 'NONE',  ( 1.000000000000000000, 0.0000000000000000000, 0.0000000000000000000 ) ) ;
#29 = APPLICATION_PROTOCOL_DEFINITION ( 'international standard', 'config_control_design', 1994, #49 ) ;
#30 = APPROVAL ( #104, 'UNSPECIFIED' ) ;
#31 = APPROVAL_STATUS ( 'not_yet_approved' ) ;
#32 = CONICAL_SURFACE ( 'NONE', #80, 2.999999999999993783, 1.221730476396026388 ) ;
#33 = EDGE_LOOP ( 'NONE', ( #78 ) ) ;
#34 = ADVANCED_BREP_SHAPE_REPRESENTATION ( '43334', ( #50, #109, #47 ), #20 ) ;
#35 = EDGE_CURVE ( 'NONE', #5, #5, #147, .T. ) ;
#36 = ORIENTED_EDGE ( 'NONE', *, *, #126, .F. ) ;
#37 = PLANE ( 'NONE',  #157 ) ;
#38 = DIRECTION ( 'NONE',  ( -3.491481338843133355E-15, 1.224646799147353207E-16, -1.000000000000000000 ) ) ;
#39 = AXIS2_PLACEMENT_3D ( 'NONE', #196, #54, #86 ) ;
#40 = APPROVAL_PERSON_ORGANIZATION ( #27, #151, #88 ) ;
#41 = EDGE_LOOP ( 'NONE', ( #173 ) ) ;
#42 = DIRECTION ( 'NONE',  ( -4.275831445896958607E-31, -1.000000000000000000, -1.224646799147353207E-16 ) ) ;
#43 = PERSON_AND_ORGANIZATION ( #129, #143 ) ;
#44 = CIRCLE ( 'NONE', #172, 2.999999999999996003 ) ;
#45 = COORDINATED_UNIVERSAL_TIME_OFFSET ( 1, 0, .AHEAD. ) ;
#46 = VERTEX_POINT ( 'NONE', #160 ) ;
#47 = AXIS2_PLACEMENT_3D ( 'NONE', #120, #125, #28 ) ;
#48 = VERTEX_POINT ( 'NONE', #89 ) ;
#49 = APPLICATION_CONTEXT ( 'configuration controlled 3d designs of mechanical parts and assemblies' ) ;
#50 = MANIFOLD_SOLID_BREP ( 'Corps-Déplacer/Copier1[1]', #96 ) ;
#51 = EDGE_LOOP ( 'NONE', ( #2 ) ) ;
#52 = FACE_OUTER_BOUND ( 'NONE', #51, .T. ) ;
#53 = ORIENTED_EDGE ( 'NONE', *, *, #162, .F. ) ;
#54 = DIRECTION ( 'NONE',  ( -3.491481338843133355E-15, 1.224646799147353207E-16, -1.000000000000000000 ) ) ;
#55 = DIRECTION ( 'NONE',  ( 4.275831445896959482E-31, 1.000000000000000000, 1.224646799147353207E-16 ) ) ;
#56 = CARTESIAN_POINT ( 'NONE',  ( 2.304377683636468267E-13, 2.299999999999992717, 66.00000000000000000 ) ) ;
#57 = DIRECTION ( 'NONE',  ( 3.491481338843133355E-15, -1.224646799147353207E-16, 1.000000000000000000 ) ) ;
#58 = COORDINATED_UNIVERSAL_TIME_OFFSET ( 1, 0, .AHEAD. ) ;
#59 = CC_DESIGN_PERSON_AND_ORGANIZATION_ASSIGNMENT ( #139, #61, ( #161 ) ) ;
#60 = CONICAL_SURFACE ( 'NONE', #137, 2.300000000000000711, 0.7853981633974437271 ) ;
#61 = PERSON_AND_ORGANIZATION_ROLE ( 'design_supplier' ) ;
#62 = LOCAL_TIME ( 13, 36, 9.000000000000000000, #45 ) ;
#63 = SHAPE_DEFINITION_REPRESENTATION ( #100, #34 ) ;
#64 = CALENDAR_DATE ( 2021, 13, 10 ) ;
#65 = ADVANCED_FACE ( 'NONE', ( #146 ), #6, .F. ) ;
#66 = ORIENTED_EDGE ( 'NONE', *, *, #35, .T. ) ;
#67 = CARTESIAN_POINT ( 'NONE',  ( 2.304377683636468267E-13, -8.082668874372532400E-15, 66.00000000000000000 ) ) ;
#68 = CIRCLE ( 'NONE', #39, 3.000000000000000444 ) ;
#69 = DIRECTION ( 'NONE',  ( -5.135813185032639159E-31, -1.000000000000000000, -1.445602896647342121E-16 ) ) ;
#70 = ADVANCED_FACE ( 'NONE', ( #72, #22 ), #110, .T. ) ;
#71 = CARTESIAN_POINT ( 'NONE',  ( 0.0000000000000000000, 0.0000000000000000000, 0.0000000000000000000 ) ) ;
#72 = FACE_OUTER_BOUND ( 'NONE', #1, .T. ) ;
#73 = DIRECTION ( 'NONE',  ( 0.0000000000000000000, 1.000000000000000000, 0.0000000000000000000 ) ) ;
#74 = APPLICATION_PROTOCOL_DEFINITION ( 'international standard', 'config_control_design', 1994, #4 ) ;
#75 = DATE_AND_TIME ( #136, #94 ) ;
#76 = AXIS2_PLACEMENT_3D ( 'NONE', #193, #154, #42 ) ;
#77 = CC_DESIGN_PERSON_AND_ORGANIZATION_ASSIGNMENT ( #25, #87, ( #116 ) ) ;
#78 = ORIENTED_EDGE ( 'NONE', *, *, #203, .T. ) ;
#79 = FACE_BOUND ( 'NONE', #90, .T. ) ;
#80 = AXIS2_PLACEMENT_3D ( 'NONE', #7, #150, #69 ) ;
#81 = DIRECTION ( 'NONE',  ( -3.491481338843133355E-15, 1.224646799147353207E-16, -1.000000000000000000 ) ) ;
#82 = CC_DESIGN_PERSON_AND_ORGANIZATION_ASSIGNMENT ( #171, #156, ( #23 ) ) ;
#83 = CLOSED_SHELL ( 'NONE', ( #26, #182, #17 ) ) ;
#84 = DIRECTION ( 'NONE',  ( -3.491481338843133355E-15, 1.224646799147353207E-16, -1.000000000000000000 ) ) ;
#85 = APPROVAL ( #144, 'UNSPECIFIED' ) ;
#86 = DIRECTION ( 'NONE',  ( 0.0000000000000000000, 1.000000000000000000, 0.0000000000000000000 ) ) ;
#87 = PERSON_AND_ORGANIZATION_ROLE ( 'classification_officer' ) ;
#88 = APPROVAL_ROLE ( '' ) ;
#89 = CARTESIAN_POINT ( 'NONE',  ( 2.279937314264566018E-13, 2.999999999999992895, 65.29999999999999716 ) ) ;
#90 = EDGE_LOOP ( 'NONE', ( #66 ) ) ;
#91 = DATE_AND_TIME ( #102, #185 ) ;
#92 = CC_DESIGN_DATE_AND_TIME_ASSIGNMENT ( #91, #119, ( #99 ) ) ;
#93 = ADVANCED_FACE ( 'NONE', ( #24 ), #134, .F. ) ;
#94 = LOCAL_TIME ( 13, 36, 9.000000000000000000, #103 ) ;
#95 = DIRECTION ( 'NONE',  ( -4.275831445896958607E-31, -1.000000000000000000, -1.224646799147353207E-16 ) ) ;
#96 = CLOSED_SHELL ( 'NONE', ( #93, #70, #195, #65 ) ) ;
#97 = DIRECTION ( 'NONE',  ( 4.275831445896958607E-31, 1.000000000000000000, 1.224646799147353454E-16 ) ) ;
#98 = CARTESIAN_POINT ( 'NONE',  ( 2.304377683636468267E-13, -8.082668874372532400E-15, 66.00000000000000000 ) ) ;
#99 = PRODUCT_DEFINITION ( 'UNKNOWN', '', #161, #122 ) ;
#100 = PRODUCT_DEFINITION_SHAPE ( 'NONE', 'NONE',  #99 ) ;
#101 = FACE_OUTER_BOUND ( 'NONE', #33, .T. ) ;
#102 = CALENDAR_DATE ( 2021, 13, 10 ) ;
#103 = COORDINATED_UNIVERSAL_TIME_OFFSET ( 1, 0, .AHEAD. ) ;
#104 = APPROVAL_STATUS ( 'not_yet_approved' ) ;
#105 = AXIS2_PLACEMENT_3D ( 'NONE', #131, #192, #149 ) ;
#106 = APPROVAL_PERSON_ORGANIZATION ( #141, #85, #3 ) ;
#107 = EDGE_CURVE ( 'NONE', #114, #114, #170, .T. ) ;
#108 = COORDINATED_UNIVERSAL_TIME_OFFSET ( 1, 0, .AHEAD. ) ;
#109 = MANIFOLD_SOLID_BREP ( 'Corps-Déplacer/Copier1[2]', #83 ) ;
#110 = CYLINDRICAL_SURFACE ( 'NONE', #183, 2.999999999999998224 ) ;
#111 = PRODUCT_RELATED_PRODUCT_CATEGORY ( 'detail', '', ( #23 ) ) ;
#112 = ORIENTED_EDGE ( 'NONE', *, *, #35, .F. ) ;
#113 = DIRECTION ( 'NONE',  ( -3.491481338843133355E-15, 1.224646799147353207E-16, -1.000000000000000000 ) ) ;
#114 = VERTEX_POINT ( 'NONE', #21 ) ;
#115 = AXIS2_PLACEMENT_3D ( 'NONE', #98, #38, #179 ) ;
#116 = SECURITY_CLASSIFICATION ( '', '', #167 ) ;
#117 = EDGE_LOOP ( 'NONE', ( #112 ) ) ;
#118 = FACE_OUTER_BOUND ( 'NONE', #189, .T. ) ;
#119 = DATE_TIME_ROLE ( 'creation_date' ) ;
#120 = CARTESIAN_POINT ( 'NONE',  ( 0.0000000000000000000, 0.0000000000000000000, 0.0000000000000000000 ) ) ;
#121 = CC_DESIGN_DATE_AND_TIME_ASSIGNMENT ( #169, #16, ( #116 ) ) ;
#122 = DESIGN_CONTEXT ( 'detailed design', #49, 'design' ) ;
#123 = CALENDAR_DATE ( 2021, 13, 10 ) ;
#124 =( LENGTH_UNIT ( ) NAMED_UNIT ( * ) SI_UNIT ( .MILLI., .METRE. ) );
#125 = DIRECTION ( 'NONE',  ( 0.0000000000000000000, 0.0000000000000000000, 1.000000000000000000 ) ) ;
#126 = EDGE_CURVE ( 'NONE', #48, #48, #68, .T. ) ;
#127 = CC_DESIGN_APPROVAL ( #151, ( #161 ) ) ;
#128 = APPROVAL_DATE_TIME ( #187, #85 ) ;
#129 = PERSON ( 'UNSPECIFIED', 'UNSPECIFIED', 'UNSPECIFIED', ('UNSPECIFIED'), ('UNSPECIFIED'), ('UNSPECIFIED') ) ;
#130 = ORIENTED_EDGE ( 'NONE', *, *, #162, .T. ) ;
#131 = CARTESIAN_POINT ( 'NONE',  ( 3.812385842504470444E-15, -1.337204947137066162E-16, 1.091910702798619459 ) ) ;
#132 = CARTESIAN_POINT ( 'NONE',  ( 2.304377683636468267E-13, 1.724723750061124754E-32, 66.00000000000000000 ) ) ;
#133 = CARTESIAN_POINT ( 'NONE',  ( 7.681258945454893382E-14, -2.694222958124176809E-15, 22.00000000000000000 ) ) ;
#134 = PLANE ( 'NONE',  #76 ) ;
#135 = AXIS2_PLACEMENT_3D ( 'NONE', #132, #113, #178 ) ;
#136 = CALENDAR_DATE ( 2021, 13, 10 ) ;
#137 = AXIS2_PLACEMENT_3D ( 'NONE', #67, #84, #165 ) ;
#138 =( NAMED_UNIT ( * ) SI_UNIT ( $, .STERADIAN. ) SOLID_ANGLE_UNIT ( ) );
#139 = PERSON_AND_ORGANIZATION ( #129, #143 ) ;
#140 = LOCAL_TIME ( 13, 36, 9.000000000000000000, #108 ) ;
#141 = PERSON_AND_ORGANIZATION ( #129, #143 ) ;
#142 = AXIS2_PLACEMENT_3D ( 'NONE', #71, #174, #55 ) ;
#143 = ORGANIZATION ( 'UNSPECIFIED', 'UNSPECIFIED', '' ) ;
#144 = APPROVAL_STATUS ( 'not_yet_approved' ) ;
#145 = EDGE_LOOP ( 'NONE', ( #53 ) ) ;
#146 = FACE_OUTER_BOUND ( 'NONE', #117, .T. ) ;
#147 = CIRCLE ( 'NONE', #115, 2.300000000000000711 ) ;
#148 = AXIS2_PLACEMENT_3D ( 'NONE', #133, #81, #73 ) ;
#149 = DIRECTION ( 'NONE',  ( 5.135813185032639159E-31, 1.000000000000000000, 1.445602896647342121E-16 ) ) ;
#150 = DIRECTION ( 'NONE',  ( 3.491481338843133355E-15, -1.224646799147353207E-16, 1.000000000000000000 ) ) ;
#151 = APPROVAL ( #31, 'UNSPECIFIED' ) ;
#152 = DIRECTION ( 'NONE',  ( -3.491481338843133355E-15, 1.224646799147353207E-16, -1.000000000000000000 ) ) ;
#153 = CC_DESIGN_APPROVAL ( #85, ( #116 ) ) ;
#154 = DIRECTION ( 'NONE',  ( 3.491481338843133355E-15, -1.224646799147353207E-16, 1.000000000000000000 ) ) ;
#155 = PERSON_AND_ORGANIZATION ( #129, #143 ) ;
#156 = PERSON_AND_ORGANIZATION_ROLE ( 'design_owner' ) ;
#157 = AXIS2_PLACEMENT_3D ( 'NONE', #19, #57, #95 ) ;
#158 = EDGE_LOOP ( 'NONE', ( #191 ) ) ;
#159 = DATE_AND_TIME ( #123, #200 ) ;
#160 = CARTESIAN_POINT ( 'NONE',  ( 7.681258945454893382E-14, 2.999999999999993339, 22.00000000000000000 ) ) ;
#161 = PRODUCT_DEFINITION_FORMATION_WITH_SPECIFIED_SOURCE ( 'ANY', '', #23, .NOT_KNOWN. ) ;
#162 = EDGE_CURVE ( 'NONE', #46, #46, #44, .T. ) ;
#163 = EDGE_LOOP ( 'NONE', ( #36 ) ) ;
#164 = CYLINDRICAL_SURFACE ( 'NONE', #142, 2.999999999999994671 ) ;
#165 = DIRECTION ( 'NONE',  ( 0.0000000000000000000, 1.000000000000000000, 0.0000000000000000000 ) ) ;
#166 = CC_DESIGN_PERSON_AND_ORGANIZATION_ASSIGNMENT ( #155, #180, ( #161 ) ) ;
#167 = SECURITY_CLASSIFICATION_LEVEL ( 'unclassified' ) ;
#168 = APPROVAL_ROLE ( '' ) ;
#169 = DATE_AND_TIME ( #10, #62 ) ;
#170 = CIRCLE ( 'NONE', #148, 2.999999999999996003 ) ;
#171 = PERSON_AND_ORGANIZATION ( #129, #143 ) ;
#172 = AXIS2_PLACEMENT_3D ( 'NONE', #190, #177, #9 ) ;
#173 = ORIENTED_EDGE ( 'NONE', *, *, #126, .T. ) ;
#174 = DIRECTION ( 'NONE',  ( -3.491481338843133355E-15, 1.224646799147353207E-16, -1.000000000000000000 ) ) ;
#175 = FACE_OUTER_BOUND ( 'NONE', #145, .T. ) ;
#176 = CC_DESIGN_PERSON_AND_ORGANIZATION_ASSIGNMENT ( #14, #181, ( #99 ) ) ;
#177 = DIRECTION ( 'NONE',  ( -3.491481338843133355E-15, 1.224646799147353207E-16, -1.000000000000000000 ) ) ;
#178 = DIRECTION ( 'NONE',  ( 4.275831445896958607E-31, 1.000000000000000000, 1.224646799147353207E-16 ) ) ;
#179 = DIRECTION ( 'NONE',  ( 0.0000000000000000000, 1.000000000000000000, 0.0000000000000000000 ) ) ;
#180 = PERSON_AND_ORGANIZATION_ROLE ( 'creator' ) ;
#181 = PERSON_AND_ORGANIZATION_ROLE ( 'creator' ) ;
#182 = ADVANCED_FACE ( 'NONE', ( #175 ), #37, .T. ) ;
#183 = AXIS2_PLACEMENT_3D ( 'NONE', #194, #152, #97 ) ;
#184 = APPROVAL_DATE_TIME ( #159, #30 ) ;
#185 = LOCAL_TIME ( 13, 36, 9.000000000000000000, #58 ) ;
#186 = CC_DESIGN_SECURITY_CLASSIFICATION ( #116, ( #161 ) ) ;
#187 = DATE_AND_TIME ( #64, #140 ) ;
#188 = ORIENTED_EDGE ( 'NONE', *, *, #107, .F. ) ;
#189 = EDGE_LOOP ( 'NONE', ( #130 ) ) ;
#190 = CARTESIAN_POINT ( 'NONE',  ( 7.681258945454893382E-14, -2.694222958124176809E-15, 22.00000000000000000 ) ) ;
#191 = ORIENTED_EDGE ( 'NONE', *, *, #107, .T. ) ;
#192 = DIRECTION ( 'NONE',  ( -3.491481338843133355E-15, 1.224646799147353207E-16, -1.000000000000000000 ) ) ;
#193 = CARTESIAN_POINT ( 'NONE',  ( 7.681258945454893382E-14, 2.249639673992779843E-32, 22.00000000000000000 ) ) ;
#194 = CARTESIAN_POINT ( 'NONE',  ( 0.0000000000000000000, 0.0000000000000000000, 0.0000000000000000000 ) ) ;
#195 = ADVANCED_FACE ( 'NONE', ( #18, #79 ), #60, .T. ) ;
#196 = CARTESIAN_POINT ( 'NONE',  ( 2.279937314264566018E-13, -7.996943598432214956E-15, 65.29999999999999716 ) ) ;
#197 = COORDINATED_UNIVERSAL_TIME_OFFSET ( 1, 0, .AHEAD. ) ;
#198 = CARTESIAN_POINT ( 'NONE',  ( 3.812385842504471233E-15, 2.999999999999993783, 1.091910702798619903 ) ) ;
#199 = CIRCLE ( 'NONE', #105, 2.999999999999993783 ) ;
#200 = LOCAL_TIME ( 13, 36, 9.000000000000000000, #197 ) ;
#201 = APPROVAL_DATE_TIME ( #75, #151 ) ;
#202 = VERTEX_POINT ( 'NONE', #198 ) ;
#203 = EDGE_CURVE ( 'NONE', #202, #202, #199, .T. ) ;
ENDSEC;
END-ISO-10303-21;
