ISO-10303-21;
HEADER;
FILE_DESCRIPTION (( 'STEP AP203' ),
    '1' );
FILE_NAME ('43333.step',
    '2021-10-13T11:36:08',
    ( '' ),
    ( '' ),
    'SwSTEP 2.0',
    'SolidWorks 2019',
    '' );
FILE_SCHEMA (( 'CONFIG_CONTROL_DESIGN' ));
ENDSEC;

DATA;
#1 = VERTEX_POINT ( 'NONE', #106 ) ;
#2 = APPROVAL_STATUS ( 'not_yet_approved' ) ;
#3 = ORIENTED_EDGE ( 'NONE', *, *, #181, .F. ) ;
#4 = APPROVAL_DATE_TIME ( #195, #169 ) ;
#5 = PRODUCT_DEFINITION_FORMATION_WITH_SPECIFIED_SOURCE ( 'ANY', '', #25, .NOT_KNOWN. ) ;
#6 = AXIS2_PLACEMENT_3D ( 'NONE', #121, #84, #27 ) ;
#7 = EDGE_LOOP ( 'NONE', ( #171 ) ) ;
#8 = LOCAL_TIME ( 13, 36, 8.000000000000000000, #164 ) ;
#9 = CARTESIAN_POINT ( 'NONE',  ( 1.012529588264508673E-13, -1.254880690488155436E-14, 29.00000000000000000 ) ) ;
#10 = CARTESIAN_POINT ( 'NONE',  ( 7.681258945454893382E-14, 2.249639673992779843E-32, 22.00000000000000000 ) ) ;
#11 = AXIS2_PLACEMENT_3D ( 'NONE', #123, #85, #156 ) ;
#12 = FACE_OUTER_BOUND ( 'NONE', #37, .T. ) ;
#13 = CARTESIAN_POINT ( 'NONE',  ( 2.279937314264566018E-13, -7.996943598432214956E-15, 65.29999999999999716 ) ) ;
#14 = CARTESIAN_POINT ( 'NONE',  ( 0.0000000000000000000, 0.0000000000000000000, 0.0000000000000000000 ) ) ;
#15 = CARTESIAN_POINT ( 'NONE',  ( 0.0000000000000000000, 0.0000000000000000000, 0.0000000000000000000 ) ) ;
#16 = CIRCLE ( 'NONE', #140, 2.300000000000000711 ) ;
#17 = VERTEX_POINT ( 'NONE', #166 ) ;
#18 = PERSON_AND_ORGANIZATION ( #83, #240 ) ;
#19 = ADVANCED_FACE ( 'NONE', ( #102, #204 ), #81, .F. ) ;
#20 = EDGE_LOOP ( 'NONE', ( #92 ) ) ;
#21 = PERSON_AND_ORGANIZATION ( #83, #240 ) ;
#22 = EDGE_LOOP ( 'NONE', ( #133 ) ) ;
#23 = EDGE_CURVE ( 'NONE', #36, #36, #158, .T. ) ;
#24 = DIRECTION ( 'NONE',  ( 4.275831445896958607E-31, 1.000000000000000000, 1.224646799147353207E-16 ) ) ;
#25 = PRODUCT ( '43333', '43333', '', ( #33 ) ) ;
#26 = COORDINATED_UNIVERSAL_TIME_OFFSET ( 1, 0, .AHEAD. ) ;
#27 = DIRECTION ( 'NONE',  ( 1.554180587290226711E-30, 1.000000000000000000, 4.327174794786742882E-16 ) ) ;
#28 = PERSON_AND_ORGANIZATION ( #83, #240 ) ;
#29 = AXIS2_PLACEMENT_3D ( 'NONE', #10, #180, #47 ) ;
#30 = ADVANCED_FACE ( 'NONE', ( #183 ), #201, .F. ) ;
#31 = APPROVAL_DATE_TIME ( #186, #134 ) ;
#32 = CC_DESIGN_SECURITY_CLASSIFICATION ( #141, ( #5 ) ) ;
#33 = MECHANICAL_CONTEXT ( 'NONE', #78, 'mechanical' ) ;
#34 = DIRECTION ( 'NONE',  ( -3.491481338843133355E-15, 1.224646799147353207E-16, -1.000000000000000000 ) ) ;
#35 = AXIS2_PLACEMENT_3D ( 'NONE', #15, #210, #71 ) ;
#36 = VERTEX_POINT ( 'NONE', #94 ) ;
#37 = EDGE_LOOP ( 'NONE', ( #96 ) ) ;
#38 = AXIS2_PLACEMENT_3D ( 'NONE', #239, #67, #142 ) ;
#39 = ORIENTED_EDGE ( 'NONE', *, *, #64, .F. ) ;
#40 = APPROVAL_ROLE ( '' ) ;
#41 = CC_DESIGN_PERSON_AND_ORGANIZATION_ASSIGNMENT ( #28, #213, ( #5 ) ) ;
#42 = DIRECTION ( 'NONE',  ( -5.312910191413056812E-31, -1.000000000000000000, -1.495451272393797077E-16 ) ) ;
#43 = MANIFOLD_SOLID_BREP ( 'Corps-Déplacer/Copier1[1]', #206 ) ;
#44 = APPROVAL_STATUS ( 'not_yet_approved' ) ;
#45 = LOCAL_TIME ( 13, 36, 8.000000000000000000, #26 ) ;
#46 = FACE_OUTER_BOUND ( 'NONE', #59, .T. ) ;
#47 = DIRECTION ( 'NONE',  ( -4.275831445896958607E-31, -1.000000000000000000, -1.224646799147353207E-16 ) ) ;
#48 = CARTESIAN_POINT ( 'NONE',  ( 2.279937314264566018E-13, 2.999999999999992895, 65.29999999999999716 ) ) ;
#49 = CC_DESIGN_DATE_AND_TIME_ASSIGNMENT ( #132, #200, ( #141 ) ) ;
#50 = FACE_OUTER_BOUND ( 'NONE', #153, .T. ) ;
#51 = CIRCLE ( 'NONE', #202, 3.000000000000000444 ) ;
#52 = ADVANCED_BREP_SHAPE_REPRESENTATION ( '43333', ( #43, #211, #35 ), #197 ) ;
#53 = VERTEX_POINT ( 'NONE', #48 ) ;
#54 = FACE_OUTER_BOUND ( 'NONE', #57, .T. ) ;
#55 = PERSON_AND_ORGANIZATION ( #83, #240 ) ;
#56 = CLOSED_SHELL ( 'NONE', ( #125, #229, #58 ) ) ;
#57 = EDGE_LOOP ( 'NONE', ( #114 ) ) ;
#58 = ADVANCED_FACE ( 'NONE', ( #159 ), #82, .T. ) ;
#59 = EDGE_LOOP ( 'NONE', ( #61 ) ) ;
#60 = COORDINATED_UNIVERSAL_TIME_OFFSET ( 1, 0, .AHEAD. ) ;
#61 = ORIENTED_EDGE ( 'NONE', *, *, #23, .T. ) ;
#62 = FACE_BOUND ( 'NONE', #20, .T. ) ;
#63 = DIRECTION ( 'NONE',  ( 3.491481338843133355E-15, -1.224646799147353207E-16, 1.000000000000000000 ) ) ;
#64 = EDGE_CURVE ( 'NONE', #53, #53, #51, .T. ) ;
#65 = FACE_OUTER_BOUND ( 'NONE', #7, .T. ) ;
#66 = APPLICATION_CONTEXT ( 'configuration controlled 3d designs of mechanical parts and assemblies' ) ;
#67 = DIRECTION ( 'NONE',  ( -3.491481338843133355E-15, 1.224646799147353207E-16, -1.000000000000000000 ) ) ;
#68 = AXIS2_PLACEMENT_3D ( 'NONE', #91, #70, #149 ) ;
#69 = CARTESIAN_POINT ( 'NONE',  ( 1.027748602583783222E-13, -1.276536237724695826E-14, 29.43588989435404457 ) ) ;
#70 = DIRECTION ( 'NONE',  ( -3.491481338843133355E-15, 4.327174794786742882E-16, -1.000000000000000000 ) ) ;
#71 = DIRECTION ( 'NONE',  ( 1.000000000000000000, 0.0000000000000000000, 0.0000000000000000000 ) ) ;
#72 = ADVANCED_FACE ( 'NONE', ( #12 ), #79, .F. ) ;
#73 = CARTESIAN_POINT ( 'NONE',  ( 7.681258945454893382E-14, -2.900000000000013678, 22.00000000000000000 ) ) ;
#74 = APPROVAL_ROLE ( '' ) ;
#75 = ORIENTED_EDGE ( 'NONE', *, *, #23, .F. ) ;
#76 = CONICAL_SURFACE ( 'NONE', #108, 2.300000000000000711, 0.7853981633974437271 ) ;
#77 = PERSON_AND_ORGANIZATION ( #83, #240 ) ;
#78 = APPLICATION_CONTEXT ( 'configuration controlled 3d designs of mechanical parts and assemblies' ) ;
#79 = PLANE ( 'NONE',  #196 ) ;
#80 = DATE_TIME_ROLE ( 'creation_date' ) ;
#81 = TOROIDAL_SURFACE ( 'NONE', #6, 3.900000000000008349, 0.9999999999999993339 ) ;
#82 = PLANE ( 'NONE',  #29 ) ;
#83 = PERSON ( 'UNSPECIFIED', 'UNSPECIFIED', 'UNSPECIFIED', ('UNSPECIFIED'), ('UNSPECIFIED'), ('UNSPECIFIED') ) ;
#84 = DIRECTION ( 'NONE',  ( -3.491481338843133355E-15, 4.327174794786742882E-16, -1.000000000000000000 ) ) ;
#85 = DIRECTION ( 'NONE',  ( -3.491481338843133355E-15, 1.224646799147353207E-16, -1.000000000000000000 ) ) ;
#86 = UNCERTAINTY_MEASURE_WITH_UNIT (LENGTH_MEASURE( 1.000000000000000082E-05 ), #208, 'distance_accuracy_value', 'NONE');
#87 = CARTESIAN_POINT ( 'NONE',  ( 2.304377683636468267E-13, -8.082668874372532400E-15, 66.00000000000000000 ) ) ;
#88 = VERTEX_POINT ( 'NONE', #224 ) ;
#89 = LOCAL_TIME ( 13, 36, 8.000000000000000000, #100 ) ;
#90 = CC_DESIGN_PERSON_AND_ORGANIZATION_ASSIGNMENT ( #145, #185, ( #222 ) ) ;
#91 = CARTESIAN_POINT ( 'NONE',  ( 0.0000000000000000000, 0.0000000000000000000, 0.0000000000000000000 ) ) ;
#92 = ORIENTED_EDGE ( 'NONE', *, *, #225, .T. ) ;
#93 = AXIS2_PLACEMENT_3D ( 'NONE', #198, #178, #24 ) ;
#94 = CARTESIAN_POINT ( 'NONE',  ( 1.027748602583783222E-13, 2.999999999999985789, 29.43588989435404457 ) ) ;
#95 = ORIENTED_EDGE ( 'NONE', *, *, #235, .T. ) ;
#96 = ORIENTED_EDGE ( 'NONE', *, *, #181, .T. ) ;
#97 = DATE_AND_TIME ( #231, #89 ) ;
#98 = EDGE_LOOP ( 'NONE', ( #193 ) ) ;
#99 = DIRECTION ( 'NONE',  ( -3.491481338843133355E-15, 4.327174794786742882E-16, -1.000000000000000000 ) ) ;
#100 = COORDINATED_UNIVERSAL_TIME_OFFSET ( 1, 0, .AHEAD. ) ;
#101 = CARTESIAN_POINT ( 'NONE',  ( 7.681258945454893382E-14, 2.249639673992779843E-32, 22.00000000000000000 ) ) ;
#102 = FACE_OUTER_BOUND ( 'NONE', #168, .T. ) ;
#103 = FACE_OUTER_BOUND ( 'NONE', #230, .T. ) ;
#104 = DIRECTION ( 'NONE',  ( 0.0000000000000000000, 1.000000000000000000, 0.0000000000000000000 ) ) ;
#105 =( NAMED_UNIT ( * ) PLANE_ANGLE_UNIT ( ) SI_UNIT ( $, .RADIAN. ) );
#106 = CARTESIAN_POINT ( 'NONE',  ( 7.681258945454893382E-14, -2.900000000000013678, 22.00000000000000000 ) ) ;
#107 = EDGE_CURVE ( 'NONE', #88, #88, #194, .T. ) ;
#108 = AXIS2_PLACEMENT_3D ( 'NONE', #87, #220, #104 ) ;
#109 = APPROVAL_PERSON_ORGANIZATION ( #18, #134, #74 ) ;
#110 = VERTEX_POINT ( 'NONE', #167 ) ;
#111 = ADVANCED_FACE ( 'NONE', ( #241, #103 ), #203, .T. ) ;
#112 = ORIENTED_EDGE ( 'NONE', *, *, #184, .F. ) ;
#113 = AXIS2_PLACEMENT_3D ( 'NONE', #238, #160, #218 ) ;
#114 = ORIENTED_EDGE ( 'NONE', *, *, #107, .F. ) ;
#115 = PERSON_AND_ORGANIZATION ( #83, #240 ) ;
#116 = APPROVAL_ROLE ( '' ) ;
#117 = AXIS2_PLACEMENT_3D ( 'NONE', #221, #182, #42 ) ;
#118 = DIRECTION ( 'NONE',  ( 0.0000000000000000000, 1.000000000000000000, 0.0000000000000000000 ) ) ;
#119 = DATE_AND_TIME ( #155, #8 ) ;
#120 = EDGE_LOOP ( 'NONE', ( #232 ) ) ;
#121 = CARTESIAN_POINT ( 'NONE',  ( 1.012529588264508673E-13, -1.257674520083185143E-14, 29.00000000000000000 ) ) ;
#122 = AXIS2_PLACEMENT_3D ( 'NONE', #14, #138, #217 ) ;
#123 = CARTESIAN_POINT ( 'NONE',  ( 0.0000000000000000000, 0.0000000000000000000, 0.0000000000000000000 ) ) ;
#124 = VERTEX_POINT ( 'NONE', #73 ) ;
#125 = ADVANCED_FACE ( 'NONE', ( #65 ), #188, .T. ) ;
#126 = DIRECTION ( 'NONE',  ( 0.0000000000000000000, -1.000000000000000000, 0.0000000000000000000 ) ) ;
#127 = PERSON_AND_ORGANIZATION_ROLE ( 'design_owner' ) ;
#128 = CIRCLE ( 'NONE', #179, 2.900000000000008349 ) ;
#129 = ORIENTED_EDGE ( 'NONE', *, *, #64, .T. ) ;
#130 = EDGE_LOOP ( 'NONE', ( #75 ) ) ;
#131 = CC_DESIGN_PERSON_AND_ORGANIZATION_ASSIGNMENT ( #55, #127, ( #25 ) ) ;
#132 = DATE_AND_TIME ( #154, #45 ) ;
#133 = ORIENTED_EDGE ( 'NONE', *, *, #184, .T. ) ;
#134 = APPROVAL ( #2, 'UNSPECIFIED' ) ;
#135 = DIRECTION ( 'NONE',  ( 3.491481338843133355E-15, -4.327174794786742882E-16, 1.000000000000000000 ) ) ;
#136 = SHAPE_DEFINITION_REPRESENTATION ( #233, #52 ) ;
#137 = DIRECTION ( 'NONE',  ( -4.275831445896958607E-31, -1.000000000000000000, -1.224646799147353207E-16 ) ) ;
#138 = DIRECTION ( 'NONE',  ( -3.491481338843133355E-15, 4.327174794786742882E-16, -1.000000000000000000 ) ) ;
#139 = APPROVAL_PERSON_ORGANIZATION ( #77, #169, #40 ) ;
#140 = AXIS2_PLACEMENT_3D ( 'NONE', #163, #34, #207 ) ;
#141 = SECURITY_CLASSIFICATION ( '', '', #236 ) ;
#142 = DIRECTION ( 'NONE',  ( 0.0000000000000000000, -1.000000000000000000, 0.0000000000000000000 ) ) ;
#143 = DESIGN_CONTEXT ( 'detailed design', #66, 'design' ) ;
#144 = CYLINDRICAL_SURFACE ( 'NONE', #11, 2.999999999999998224 ) ;
#145 = PERSON_AND_ORGANIZATION ( #83, #240 ) ;
#146 =( NAMED_UNIT ( * ) SI_UNIT ( $, .STERADIAN. ) SOLID_ANGLE_UNIT ( ) );
#147 = CIRCLE ( 'NONE', #38, 2.900000000000004352 ) ;
#148 = APPLICATION_PROTOCOL_DEFINITION ( 'international standard', 'config_control_design', 1994, #78 ) ;
#149 = DIRECTION ( 'NONE',  ( 1.510825004591027855E-30, 1.000000000000000000, 4.327174794786742882E-16 ) ) ;
#150 = LOCAL_TIME ( 13, 36, 8.000000000000000000, #152 ) ;
#151 = CC_DESIGN_PERSON_AND_ORGANIZATION_ASSIGNMENT ( #21, #157, ( #5 ) ) ;
#152 = COORDINATED_UNIVERSAL_TIME_OFFSET ( 1, 0, .AHEAD. ) ;
#153 = EDGE_LOOP ( 'NONE', ( #95 ) ) ;
#154 = CALENDAR_DATE ( 2021, 13, 10 ) ;
#155 = CALENDAR_DATE ( 2021, 13, 10 ) ;
#156 = DIRECTION ( 'NONE',  ( 4.275831445896958607E-31, 1.000000000000000000, 1.224646799147353454E-16 ) ) ;
#157 = PERSON_AND_ORGANIZATION_ROLE ( 'creator' ) ;
#158 = CIRCLE ( 'NONE', #212, 2.999999999999998224 ) ;
#159 = FACE_OUTER_BOUND ( 'NONE', #120, .T. ) ;
#160 = DIRECTION ( 'NONE',  ( 3.491481338843133355E-15, -1.224646799147353207E-16, 1.000000000000000000 ) ) ;
#161 = FACE_OUTER_BOUND ( 'NONE', #226, .T. ) ;
#162 = CC_DESIGN_APPROVAL ( #134, ( #222 ) ) ;
#163 = CARTESIAN_POINT ( 'NONE',  ( 2.304377683636468267E-13, -8.082668874372532400E-15, 66.00000000000000000 ) ) ;
#164 = COORDINATED_UNIVERSAL_TIME_OFFSET ( 1, 0, .AHEAD. ) ;
#165 = PRODUCT_RELATED_PRODUCT_CATEGORY ( 'detail', '', ( #25 ) ) ;
#166 = CARTESIAN_POINT ( 'NONE',  ( 1.012529588264508673E-13, 2.899999999999995914, 29.00000000000000000 ) ) ;
#167 = CARTESIAN_POINT ( 'NONE',  ( 2.304377683636468267E-13, 2.299999999999992717, 66.00000000000000000 ) ) ;
#168 = EDGE_LOOP ( 'NONE', ( #112 ) ) ;
#169 = APPROVAL ( #227, 'UNSPECIFIED' ) ;
#170 = APPROVAL_PERSON_ORGANIZATION ( #173, #190, #116 ) ;
#171 = ORIENTED_EDGE ( 'NONE', *, *, #107, .T. ) ;
#172 = CIRCLE ( 'NONE', #209, 2.900000000000004352 ) ;
#173 = PERSON_AND_ORGANIZATION ( #83, #240 ) ;
#174 = ADVANCED_FACE ( 'NONE', ( #46, #161 ), #144, .T. ) ;
#175 = PERSON_AND_ORGANIZATION_ROLE ( 'classification_officer' ) ;
#176 = DIRECTION ( 'NONE',  ( -3.491481338843133355E-15, 1.224646799147353207E-16, -1.000000000000000000 ) ) ;
#177 = APPROVAL_DATE_TIME ( #97, #190 ) ;
#178 = DIRECTION ( 'NONE',  ( -3.491481338843133355E-15, 1.224646799147353207E-16, -1.000000000000000000 ) ) ;
#179 = AXIS2_PLACEMENT_3D ( 'NONE', #9, #99, #234 ) ;
#180 = DIRECTION ( 'NONE',  ( 3.491481338843133355E-15, -1.224646799147353207E-16, 1.000000000000000000 ) ) ;
#181 = EDGE_CURVE ( 'NONE', #124, #124, #147, .T. ) ;
#182 = DIRECTION ( 'NONE',  ( -3.491481338843133355E-15, 1.224646799147353207E-16, -1.000000000000000000 ) ) ;
#183 = FACE_OUTER_BOUND ( 'NONE', #98, .T. ) ;
#184 = EDGE_CURVE ( 'NONE', #17, #17, #128, .T. ) ;
#185 = PERSON_AND_ORGANIZATION_ROLE ( 'creator' ) ;
#186 = DATE_AND_TIME ( #205, #150 ) ;
#187 = CC_DESIGN_APPROVAL ( #169, ( #5 ) ) ;
#188 = CONICAL_SURFACE ( 'NONE', #113, 2.999999999999993783, 1.221730476396026388 ) ;
#189 = DIRECTION ( 'NONE',  ( -3.491481338843133355E-15, 1.224646799147353207E-16, -1.000000000000000000 ) ) ;
#190 = APPROVAL ( #44, 'UNSPECIFIED' ) ;
#191 = APPLICATION_PROTOCOL_DEFINITION ( 'international standard', 'config_control_design', 1994, #66 ) ;
#192 = CC_DESIGN_PERSON_AND_ORGANIZATION_ASSIGNMENT ( #115, #175, ( #141 ) ) ;
#193 = ORIENTED_EDGE ( 'NONE', *, *, #225, .F. ) ;
#194 = CIRCLE ( 'NONE', #117, 2.900000000000004352 ) ;
#195 = DATE_AND_TIME ( #199, #219 ) ;
#196 = AXIS2_PLACEMENT_3D ( 'NONE', #101, #63, #137 ) ;
#197 =( GEOMETRIC_REPRESENTATION_CONTEXT ( 3 ) GLOBAL_UNCERTAINTY_ASSIGNED_CONTEXT ( ( #86 ) ) GLOBAL_UNIT_ASSIGNED_CONTEXT ( ( #208, #105, #146 ) ) REPRESENTATION_CONTEXT ( 'NONE', 'WORKASPACE' ) );
#198 = CARTESIAN_POINT ( 'NONE',  ( 2.304377683636468267E-13, 1.724723750061124754E-32, 66.00000000000000000 ) ) ;
#199 = CALENDAR_DATE ( 2021, 13, 10 ) ;
#200 = DATE_TIME_ROLE ( 'classification_date' ) ;
#201 = PLANE ( 'NONE',  #93 ) ;
#202 = AXIS2_PLACEMENT_3D ( 'NONE', #13, #176, #237 ) ;
#203 = CYLINDRICAL_SURFACE ( 'NONE', #122, 2.900000000000004352 ) ;
#204 = FACE_OUTER_BOUND ( 'NONE', #130, .T. ) ;
#205 = CALENDAR_DATE ( 2021, 13, 10 ) ;
#206 = CLOSED_SHELL ( 'NONE', ( #174, #214, #30, #111, #19, #72 ) ) ;
#207 = DIRECTION ( 'NONE',  ( 0.0000000000000000000, 1.000000000000000000, 0.0000000000000000000 ) ) ;
#208 =( LENGTH_UNIT ( ) NAMED_UNIT ( * ) SI_UNIT ( .MILLI., .METRE. ) );
#209 = AXIS2_PLACEMENT_3D ( 'NONE', #223, #189, #126 ) ;
#210 = DIRECTION ( 'NONE',  ( 0.0000000000000000000, 0.0000000000000000000, 1.000000000000000000 ) ) ;
#211 = MANIFOLD_SOLID_BREP ( 'Corps-Déplacer/Copier1[2]', #56 ) ;
#212 = AXIS2_PLACEMENT_3D ( 'NONE', #69, #135, #118 ) ;
#213 = PERSON_AND_ORGANIZATION_ROLE ( 'design_supplier' ) ;
#214 = ADVANCED_FACE ( 'NONE', ( #216, #62 ), #76, .T. ) ;
#215 = EDGE_LOOP ( 'NONE', ( #39 ) ) ;
#216 = FACE_OUTER_BOUND ( 'NONE', #215, .T. ) ;
#217 = DIRECTION ( 'NONE',  ( 1.510825004591027855E-30, 1.000000000000000000, 4.327174794786742882E-16 ) ) ;
#218 = DIRECTION ( 'NONE',  ( -5.135813185032639159E-31, -1.000000000000000000, -1.445602896647342121E-16 ) ) ;
#219 = LOCAL_TIME ( 13, 36, 8.000000000000000000, #60 ) ;
#220 = DIRECTION ( 'NONE',  ( -3.491481338843133355E-15, 1.224646799147353207E-16, -1.000000000000000000 ) ) ;
#221 = CARTESIAN_POINT ( 'NONE',  ( 3.685306314421000349E-15, -1.292631448899168567E-16, 1.055513679372002356 ) ) ;
#222 = PRODUCT_DEFINITION ( 'UNKNOWN', '', #5, #143 ) ;
#223 = CARTESIAN_POINT ( 'NONE',  ( 7.681258945454893382E-14, -9.519784548530834340E-15, 22.00000000000000000 ) ) ;
#224 = CARTESIAN_POINT ( 'NONE',  ( 3.685306314420998772E-15, -2.900000000000004352, 1.055513679372001912 ) ) ;
#225 = EDGE_CURVE ( 'NONE', #110, #110, #16, .T. ) ;
#226 = EDGE_LOOP ( 'NONE', ( #129 ) ) ;
#227 = APPROVAL_STATUS ( 'not_yet_approved' ) ;
#228 = CC_DESIGN_APPROVAL ( #190, ( #141 ) ) ;
#229 = ADVANCED_FACE ( 'NONE', ( #50, #54 ), #242, .T. ) ;
#230 = EDGE_LOOP ( 'NONE', ( #3 ) ) ;
#231 = CALENDAR_DATE ( 2021, 13, 10 ) ;
#232 = ORIENTED_EDGE ( 'NONE', *, *, #235, .F. ) ;
#233 = PRODUCT_DEFINITION_SHAPE ( 'NONE', 'NONE',  #222 ) ;
#234 = DIRECTION ( 'NONE',  ( 0.0000000000000000000, 1.000000000000000000, 0.0000000000000000000 ) ) ;
#235 = EDGE_CURVE ( 'NONE', #1, #1, #172, .T. ) ;
#236 = SECURITY_CLASSIFICATION_LEVEL ( 'unclassified' ) ;
#237 = DIRECTION ( 'NONE',  ( 0.0000000000000000000, 1.000000000000000000, 0.0000000000000000000 ) ) ;
#238 = CARTESIAN_POINT ( 'NONE',  ( 3.812385842504470444E-15, -1.337204947137066162E-16, 1.091910702798619459 ) ) ;
#239 = CARTESIAN_POINT ( 'NONE',  ( 7.681258945454893382E-14, -9.519784548530834340E-15, 22.00000000000000000 ) ) ;
#240 = ORGANIZATION ( 'UNSPECIFIED', 'UNSPECIFIED', '' ) ;
#241 = FACE_OUTER_BOUND ( 'NONE', #22, .T. ) ;
#242 = CYLINDRICAL_SURFACE ( 'NONE', #68, 2.900000000000004352 ) ;
#243 = CC_DESIGN_DATE_AND_TIME_ASSIGNMENT ( #119, #80, ( #222 ) ) ;
ENDSEC;
END-ISO-10303-21;
