ISO-10303-21;
HEADER;
FILE_DESCRIPTION (( 'STEP AP203' ),
    '1' );
FILE_NAME ('43332.step',
    '2021-10-13T11:36:07',
    ( '' ),
    ( '' ),
    'SwSTEP 2.0',
    'SolidWorks 2019',
    '' );
FILE_SCHEMA (( 'CONFIG_CONTROL_DESIGN' ));
ENDSEC;

DATA;
#1 = APPROVAL ( #192, 'UNSPECIFIED' ) ;
#2 = APPLICATION_PROTOCOL_DEFINITION ( 'international standard', 'config_control_design', 1994, #204 ) ;
#3 = DIRECTION ( 'NONE',  ( 4.275831445896958607E-31, 1.000000000000000000, 1.224646799147353207E-16 ) ) ;
#4 = EDGE_CURVE ( 'NONE', #79, #79, #156, .T. ) ;
#5 = ORIENTED_EDGE ( 'NONE', *, *, #108, .F. ) ;
#6 = FACE_OUTER_BOUND ( 'NONE', #90, .T. ) ;
#7 = APPROVAL_PERSON_ORGANIZATION ( #226, #221, #23 ) ;
#8 = ORIENTED_EDGE ( 'NONE', *, *, #25, .T. ) ;
#9 = DIRECTION ( 'NONE',  ( -3.491481338843133355E-15, 1.224646799147353207E-16, -1.000000000000000000 ) ) ;
#10 = CARTESIAN_POINT ( 'NONE',  ( 6.982962677686266711E-14, -2.750000000000012879, 20.00000000000000000 ) ) ;
#11 = EDGE_CURVE ( 'NONE', #80, #80, #153, .T. ) ;
#12 = CARTESIAN_POINT ( 'NONE',  ( 2.304377683636468267E-13, -8.082668874372532400E-15, 66.00000000000000000 ) ) ;
#13 = DATE_AND_TIME ( #146, #165 ) ;
#14 = ORIENTED_EDGE ( 'NONE', *, *, #65, .T. ) ;
#15 = DIRECTION ( 'NONE',  ( -3.491481338843133355E-15, 4.327174794786742882E-16, -1.000000000000000000 ) ) ;
#16 = DESIGN_CONTEXT ( 'detailed design', #19, 'design' ) ;
#17 = CONICAL_SURFACE ( 'NONE', #206, 2.999999999999993783, 1.221730476396026388 ) ;
#18 = DIRECTION ( 'NONE',  ( 0.0000000000000000000, 0.0000000000000000000, 1.000000000000000000 ) ) ;
#19 = APPLICATION_CONTEXT ( 'configuration controlled 3d designs of mechanical parts and assemblies' ) ;
#20 = APPROVAL_DATE_TIME ( #129, #1 ) ;
#21 = CIRCLE ( 'NONE', #60, 2.750000000000003997 ) ;
#22 = AXIS2_PLACEMENT_3D ( 'NONE', #71, #157, #114 ) ;
#23 = APPROVAL_ROLE ( '' ) ;
#24 = EDGE_LOOP ( 'NONE', ( #134 ) ) ;
#25 = EDGE_CURVE ( 'NONE', #217, #217, #70, .T. ) ;
#26 = ORIENTED_EDGE ( 'NONE', *, *, #223, .T. ) ;
#27 = DIRECTION ( 'NONE',  ( -5.602705292762859895E-31, -1.000000000000000000, -1.577021341797095095E-16 ) ) ;
#28 = EDGE_LOOP ( 'NONE', ( #39 ) ) ;
#29 = DIRECTION ( 'NONE',  ( -3.491481338843133355E-15, 1.224646799147353207E-16, -1.000000000000000000 ) ) ;
#30 = CARTESIAN_POINT ( 'NONE',  ( 6.982962677686266711E-14, -8.654349589573485764E-15, 20.00000000000000000 ) ) ;
#31 = AXIS2_PLACEMENT_3D ( 'NONE', #30, #213, #214 ) ;
#32 = CARTESIAN_POINT ( 'NONE',  ( 9.426999614876460059E-14, 2.749999999999996891, 27.00000000000000000 ) ) ;
#33 = DIRECTION ( 'NONE',  ( -4.275831445896958607E-31, -1.000000000000000000, -1.224646799147353207E-16 ) ) ;
#34 = ADVANCED_FACE ( 'NONE', ( #230, #95 ), #215, .T. ) ;
#35 = CARTESIAN_POINT ( 'NONE',  ( 3.812385842504470444E-15, -1.337204947137066162E-16, 1.091910702798619459 ) ) ;
#36 = ORIENTED_EDGE ( 'NONE', *, *, #140, .F. ) ;
#37 = CC_DESIGN_APPROVAL ( #52, ( #47 ) ) ;
#38 = FACE_OUTER_BOUND ( 'NONE', #154, .T. ) ;
#39 = ORIENTED_EDGE ( 'NONE', *, *, #25, .F. ) ;
#40 = PLANE ( 'NONE',  #130 ) ;
#41 = PERSON_AND_ORGANIZATION_ROLE ( 'design_supplier' ) ;
#42 = AXIS2_PLACEMENT_3D ( 'NONE', #77, #218, #33 ) ;
#43 = PRODUCT_DEFINITION ( 'UNKNOWN', '', #55, #16 ) ;
#44 = DATE_AND_TIME ( #167, #100 ) ;
#45 = APPROVAL_STATUS ( 'not_yet_approved' ) ;
#46 = AXIS2_PLACEMENT_3D ( 'NONE', #59, #15, #102 ) ;
#47 = SECURITY_CLASSIFICATION ( '', '', #207 ) ;
#48 = DIRECTION ( 'NONE',  ( -3.491481338843133355E-15, 1.224646799147353207E-16, -1.000000000000000000 ) ) ;
#49 = ORGANIZATION ( 'UNSPECIFIED', 'UNSPECIFIED', '' ) ;
#50 = EDGE_LOOP ( 'NONE', ( #229 ) ) ;
#51 = ORIENTED_EDGE ( 'NONE', *, *, #223, .F. ) ;
#52 = APPROVAL ( #182, 'UNSPECIFIED' ) ;
#53 = CARTESIAN_POINT ( 'NONE',  ( 9.426999614876460059E-14, -1.168337194592420578E-14, 27.00000000000000000 ) ) ;
#54 = AXIS2_PLACEMENT_3D ( 'NONE', #94, #175, #211 ) ;
#55 = PRODUCT_DEFINITION_FORMATION_WITH_SPECIFIED_SOURCE ( 'ANY', '', #143, .NOT_KNOWN. ) ;
#56 = CARTESIAN_POINT ( 'NONE',  ( 6.982962677686266711E-14, 2.249639673992779843E-32, 20.00000000000000000 ) ) ;
#57 = DIRECTION ( 'NONE',  ( -3.491481338843133355E-15, 1.224646799147353207E-16, -1.000000000000000000 ) ) ;
#58 = COORDINATED_UNIVERSAL_TIME_OFFSET ( 1, 0, .AHEAD. ) ;
#59 = CARTESIAN_POINT ( 'NONE',  ( 9.426999614876460059E-14, -1.170938346284344789E-14, 27.00000000000000000 ) ) ;
#60 = AXIS2_PLACEMENT_3D ( 'NONE', #231, #29, #27 ) ;
#61 = DIRECTION ( 'NONE',  ( 0.0000000000000000000, 1.000000000000000000, 0.0000000000000000000 ) ) ;
#62 = DIRECTION ( 'NONE',  ( 3.491481338843133355E-15, -1.224646799147353207E-16, 1.000000000000000000 ) ) ;
#63 = PRODUCT_DEFINITION_SHAPE ( 'NONE', 'NONE',  #43 ) ;
#64 = DATE_AND_TIME ( #69, #245 ) ;
#65 = EDGE_CURVE ( 'NONE', #161, #161, #176, .T. ) ;
#66 = ADVANCED_FACE ( 'NONE', ( #195 ), #112, .F. ) ;
#67 = PERSON_AND_ORGANIZATION ( #106, #49 ) ;
#68 =( NAMED_UNIT ( * ) SI_UNIT ( $, .STERADIAN. ) SOLID_ANGLE_UNIT ( ) );
#69 = CALENDAR_DATE ( 2021, 13, 10 ) ;
#70 = CIRCLE ( 'NONE', #144, 2.750000000000008438 ) ;
#71 = CARTESIAN_POINT ( 'NONE',  ( 9.671739152203461081E-14, -1.198669041004639198E-14, 27.70096189432332423 ) ) ;
#72 = CC_DESIGN_DATE_AND_TIME_ASSIGNMENT ( #44, #224, ( #47 ) ) ;
#73 = AXIS2_PLACEMENT_3D ( 'NONE', #116, #93, #178 ) ;
#74 = DIRECTION ( 'NONE',  ( -3.491481338843133355E-15, 4.327174794786742882E-16, -1.000000000000000000 ) ) ;
#75 = CARTESIAN_POINT ( 'NONE',  ( 2.304377683636468267E-13, 1.724723750061124754E-32, 66.00000000000000000 ) ) ;
#76 = EDGE_LOOP ( 'NONE', ( #197 ) ) ;
#77 = CARTESIAN_POINT ( 'NONE',  ( 6.982962677686266711E-14, 2.249639673992779843E-32, 20.00000000000000000 ) ) ;
#78 = AXIS2_PLACEMENT_3D ( 'NONE', #81, #117, #256 ) ;
#79 = VERTEX_POINT ( 'NONE', #219 ) ;
#80 = VERTEX_POINT ( 'NONE', #141 ) ;
#81 = CARTESIAN_POINT ( 'NONE',  ( 0.0000000000000000000, 0.0000000000000000000, 0.0000000000000000000 ) ) ;
#82 = FACE_BOUND ( 'NONE', #235, .T. ) ;
#83 = COORDINATED_UNIVERSAL_TIME_OFFSET ( 1, 0, .AHEAD. ) ;
#84 = ADVANCED_FACE ( 'NONE', ( #246, #132 ), #199, .T. ) ;
#85 = COORDINATED_UNIVERSAL_TIME_OFFSET ( 1, 0, .AHEAD. ) ;
#86 = LOCAL_TIME ( 13, 36, 7.000000000000000000, #263 ) ;
#87 = COORDINATED_UNIVERSAL_TIME_OFFSET ( 1, 0, .AHEAD. ) ;
#88 = ADVANCED_BREP_SHAPE_REPRESENTATION ( '43332', ( #262, #260, #169 ), #99 ) ;
#89 = PERSON_AND_ORGANIZATION_ROLE ( 'creator' ) ;
#90 = EDGE_LOOP ( 'NONE', ( #124 ) ) ;
#91 = CIRCLE ( 'NONE', #127, 2.300000000000000711 ) ;
#92 = EDGE_LOOP ( 'NONE', ( #51 ) ) ;
#93 = DIRECTION ( 'NONE',  ( -3.491481338843133355E-15, 1.224646799147353207E-16, -1.000000000000000000 ) ) ;
#94 = CARTESIAN_POINT ( 'NONE',  ( 0.0000000000000000000, 0.0000000000000000000, 0.0000000000000000000 ) ) ;
#95 = FACE_OUTER_BOUND ( 'NONE', #248, .T. ) ;
#96 = ORIENTED_EDGE ( 'NONE', *, *, #4, .F. ) ;
#97 = FACE_OUTER_BOUND ( 'NONE', #232, .T. ) ;
#98 = CARTESIAN_POINT ( 'NONE',  ( 3.494687022295775092E-15, -2.750000000000003997, 1.000918144232070928 ) ) ;
#99 =( GEOMETRIC_REPRESENTATION_CONTEXT ( 3 ) GLOBAL_UNCERTAINTY_ASSIGNED_CONTEXT ( ( #190 ) ) GLOBAL_UNIT_ASSIGNED_CONTEXT ( ( #104, #243, #68 ) ) REPRESENTATION_CONTEXT ( 'NONE', 'WORKASPACE' ) );
#100 = LOCAL_TIME ( 13, 36, 7.000000000000000000, #83 ) ;
#101 = PERSON_AND_ORGANIZATION ( #106, #49 ) ;
#102 = DIRECTION ( 'NONE',  ( 1.555549710954412117E-30, 1.000000000000000000, 4.327174794786742882E-16 ) ) ;
#103 = EDGE_CURVE ( 'NONE', #234, #234, #21, .T. ) ;
#104 =( LENGTH_UNIT ( ) NAMED_UNIT ( * ) SI_UNIT ( .MILLI., .METRE. ) );
#105 = CARTESIAN_POINT ( 'NONE',  ( 2.304377683636468267E-13, -8.082668874372532400E-15, 66.00000000000000000 ) ) ;
#106 = PERSON ( 'UNSPECIFIED', 'UNSPECIFIED', 'UNSPECIFIED', ('UNSPECIFIED'), ('UNSPECIFIED'), ('UNSPECIFIED') ) ;
#107 = MECHANICAL_CONTEXT ( 'NONE', #204, 'mechanical' ) ;
#108 = EDGE_CURVE ( 'NONE', #181, #181, #184, .T. ) ;
#109 = APPROVAL_ROLE ( '' ) ;
#110 = PERSON_AND_ORGANIZATION ( #106, #49 ) ;
#111 = PERSON_AND_ORGANIZATION ( #106, #49 ) ;
#112 = PLANE ( 'NONE',  #216 ) ;
#113 = DIRECTION ( 'NONE',  ( -3.491481338843133355E-15, 4.327174794786742882E-16, -1.000000000000000000 ) ) ;
#114 = DIRECTION ( 'NONE',  ( 0.0000000000000000000, -1.000000000000000000, 0.0000000000000000000 ) ) ;
#115 = DIRECTION ( 'NONE',  ( -3.491481338843133355E-15, 1.224646799147353207E-16, -1.000000000000000000 ) ) ;
#116 = CARTESIAN_POINT ( 'NONE',  ( 0.0000000000000000000, 0.0000000000000000000, 0.0000000000000000000 ) ) ;
#117 = DIRECTION ( 'NONE',  ( -3.491481338843133355E-15, 4.327174794786742882E-16, -1.000000000000000000 ) ) ;
#118 = DIRECTION ( 'NONE',  ( 3.491481338843133355E-15, -1.224646799147353207E-16, 1.000000000000000000 ) ) ;
#119 = VERTEX_POINT ( 'NONE', #255 ) ;
#120 = CC_DESIGN_APPROVAL ( #1, ( #43 ) ) ;
#121 = CC_DESIGN_PERSON_AND_ORGANIZATION_ASSIGNMENT ( #67, #41, ( #55 ) ) ;
#122 = CARTESIAN_POINT ( 'NONE',  ( 9.974110305831212776E-14, -1.236143473993650234E-14, 28.56698729810777948 ) ) ;
#123 = FACE_BOUND ( 'NONE', #135, .T. ) ;
#124 = ORIENTED_EDGE ( 'NONE', *, *, #11, .T. ) ;
#125 = APPROVAL_ROLE ( '' ) ;
#126 = ADVANCED_FACE ( 'NONE', ( #6, #97 ), #236, .T. ) ;
#127 = AXIS2_PLACEMENT_3D ( 'NONE', #105, #259, #163 ) ;
#128 = CALENDAR_DATE ( 2021, 13, 10 ) ;
#129 = DATE_AND_TIME ( #128, #86 ) ;
#130 = AXIS2_PLACEMENT_3D ( 'NONE', #56, #118, #185 ) ;
#131 = CC_DESIGN_PERSON_AND_ORGANIZATION_ASSIGNMENT ( #171, #227, ( #47 ) ) ;
#132 = FACE_OUTER_BOUND ( 'NONE', #193, .T. ) ;
#133 = CONICAL_SURFACE ( 'NONE', #198, 3.500000000000011102, 0.5235987755983010361 ) ;
#134 = ORIENTED_EDGE ( 'NONE', *, *, #11, .F. ) ;
#135 = EDGE_LOOP ( 'NONE', ( #5 ) ) ;
#136 = CARTESIAN_POINT ( 'NONE',  ( 9.601573681818617358E-14, -1.189973068566354293E-14, 27.50000000000000000 ) ) ;
#137 = LOCAL_TIME ( 13, 36, 7.000000000000000000, #87 ) ;
#138 = ORIENTED_EDGE ( 'NONE', *, *, #108, .T. ) ;
#139 = FACE_OUTER_BOUND ( 'NONE', #209, .T. ) ;
#140 = EDGE_CURVE ( 'NONE', #119, #119, #147, .T. ) ;
#141 = CARTESIAN_POINT ( 'NONE',  ( 6.982962677686266711E-14, -2.750000000000012879, 20.00000000000000000 ) ) ;
#142 = CC_DESIGN_PERSON_AND_ORGANIZATION_ASSIGNMENT ( #187, #261, ( #143 ) ) ;
#143 = PRODUCT ( '43332', '43332', '', ( #107 ) ) ;
#144 = AXIS2_PLACEMENT_3D ( 'NONE', #53, #74, #159 ) ;
#145 = CARTESIAN_POINT ( 'NONE',  ( 2.279937314264566018E-13, -7.996943598432214956E-15, 65.29999999999999716 ) ) ;
#146 = CALENDAR_DATE ( 2021, 13, 10 ) ;
#147 = CIRCLE ( 'NONE', #239, 3.000000000000000444 ) ;
#148 = CC_DESIGN_APPROVAL ( #221, ( #55 ) ) ;
#149 = DATE_AND_TIME ( #152, #137 ) ;
#150 = DIRECTION ( 'NONE',  ( 1.000000000000000000, 0.0000000000000000000, 0.0000000000000000000 ) ) ;
#151 = CC_DESIGN_PERSON_AND_ORGANIZATION_ASSIGNMENT ( #110, #210, ( #43 ) ) ;
#152 = CALENDAR_DATE ( 2021, 13, 10 ) ;
#153 = CIRCLE ( 'NONE', #31, 2.750000000000003997 ) ;
#154 = EDGE_LOOP ( 'NONE', ( #36 ) ) ;
#155 = EDGE_LOOP ( 'NONE', ( #138 ) ) ;
#156 = CIRCLE ( 'NONE', #22, 2.999999999999998224 ) ;
#157 = DIRECTION ( 'NONE',  ( 3.491481338843133355E-15, -4.327174794786742882E-16, 1.000000000000000000 ) ) ;
#158 = ORIENTED_EDGE ( 'NONE', *, *, #103, .F. ) ;
#159 = DIRECTION ( 'NONE',  ( 0.0000000000000000000, 1.000000000000000000, 0.0000000000000000000 ) ) ;
#160 = AXIS2_PLACEMENT_3D ( 'NONE', #251, #48, #173 ) ;
#161 = VERTEX_POINT ( 'NONE', #10 ) ;
#162 = ADVANCED_FACE ( 'NONE', ( #139 ), #40, .F. ) ;
#163 = DIRECTION ( 'NONE',  ( 0.0000000000000000000, 1.000000000000000000, 0.0000000000000000000 ) ) ;
#164 = VERTEX_POINT ( 'NONE', #220 ) ;
#165 = LOCAL_TIME ( 13, 36, 7.000000000000000000, #58 ) ;
#166 = FACE_OUTER_BOUND ( 'NONE', #24, .T. ) ;
#167 = CALENDAR_DATE ( 2021, 13, 10 ) ;
#168 = APPROVAL_DATE_TIME ( #64, #221 ) ;
#169 = AXIS2_PLACEMENT_3D ( 'NONE', #188, #18, #150 ) ;
#170 = DATE_TIME_ROLE ( 'creation_date' ) ;
#171 = PERSON_AND_ORGANIZATION ( #106, #49 ) ;
#172 = PRODUCT_RELATED_PRODUCT_CATEGORY ( 'detail', '', ( #143 ) ) ;
#173 = DIRECTION ( 'NONE',  ( 0.0000000000000000000, -1.000000000000000000, 0.0000000000000000000 ) ) ;
#174 = EDGE_LOOP ( 'NONE', ( #96 ) ) ;
#175 = DIRECTION ( 'NONE',  ( -3.491481338843133355E-15, 4.327174794786742882E-16, -1.000000000000000000 ) ) ;
#176 = CIRCLE ( 'NONE', #160, 2.750000000000003997 ) ;
#177 = ORIENTED_EDGE ( 'NONE', *, *, #65, .F. ) ;
#178 = DIRECTION ( 'NONE',  ( 4.275831445896958607E-31, 1.000000000000000000, 1.224646799147353454E-16 ) ) ;
#179 = CC_DESIGN_DATE_AND_TIME_ASSIGNMENT ( #149, #170, ( #43 ) ) ;
#180 = CONICAL_SURFACE ( 'NONE', #233, 2.300000000000000711, 0.7853981633974437271 ) ;
#181 = VERTEX_POINT ( 'NONE', #183 ) ;
#182 = APPROVAL_STATUS ( 'not_yet_approved' ) ;
#183 = CARTESIAN_POINT ( 'NONE',  ( 9.601573681818617358E-14, 2.883974596215558073, 27.50000000000000000 ) ) ;
#184 = CIRCLE ( 'NONE', #244, 2.883974596215569619 ) ;
#185 = DIRECTION ( 'NONE',  ( -4.275831445896958607E-31, -1.000000000000000000, -1.224646799147353207E-16 ) ) ;
#186 = CC_DESIGN_SECURITY_CLASSIFICATION ( #47, ( #55 ) ) ;
#187 = PERSON_AND_ORGANIZATION ( #106, #49 ) ;
#188 = CARTESIAN_POINT ( 'NONE',  ( 0.0000000000000000000, 0.0000000000000000000, 0.0000000000000000000 ) ) ;
#189 = ADVANCED_FACE ( 'NONE', ( #237 ), #17, .T. ) ;
#190 = UNCERTAINTY_MEASURE_WITH_UNIT (LENGTH_MEASURE( 1.000000000000000082E-05 ), #104, 'distance_accuracy_value', 'NONE');
#191 = TOROIDAL_SURFACE ( 'NONE', #46, 3.750000000000007994, 0.9999999999999997780 ) ;
#192 = APPROVAL_STATUS ( 'not_yet_approved' ) ;
#193 = EDGE_LOOP ( 'NONE', ( #177 ) ) ;
#194 = DIRECTION ( 'NONE',  ( 0.0000000000000000000, 1.000000000000000000, 0.0000000000000000000 ) ) ;
#195 = FACE_OUTER_BOUND ( 'NONE', #92, .T. ) ;
#196 = ADVANCED_FACE ( 'NONE', ( #38, #82 ), #180, .T. ) ;
#197 = ORIENTED_EDGE ( 'NONE', *, *, #4, .T. ) ;
#198 = AXIS2_PLACEMENT_3D ( 'NONE', #122, #200, #254 ) ;
#199 = CYLINDRICAL_SURFACE ( 'NONE', #54, 2.750000000000003997 ) ;
#200 = DIRECTION ( 'NONE',  ( 3.491481338843133355E-15, -4.327174794786742882E-16, 1.000000000000000000 ) ) ;
#201 = FACE_OUTER_BOUND ( 'NONE', #28, .T. ) ;
#202 = APPROVAL_DATE_TIME ( #13, #52 ) ;
#203 = APPROVAL_PERSON_ORGANIZATION ( #242, #1, #109 ) ;
#204 = APPLICATION_CONTEXT ( 'configuration controlled 3d designs of mechanical parts and assemblies' ) ;
#205 = FACE_OUTER_BOUND ( 'NONE', #155, .T. ) ;
#206 = AXIS2_PLACEMENT_3D ( 'NONE', #35, #62, #222 ) ;
#207 = SECURITY_CLASSIFICATION_LEVEL ( 'unclassified' ) ;
#208 = ADVANCED_FACE ( 'NONE', ( #201, #205 ), #191, .F. ) ;
#209 = EDGE_LOOP ( 'NONE', ( #14 ) ) ;
#210 = PERSON_AND_ORGANIZATION_ROLE ( 'creator' ) ;
#211 = DIRECTION ( 'NONE',  ( 1.510825004591028205E-30, 1.000000000000000000, 4.327174794786742882E-16 ) ) ;
#212 = ADVANCED_FACE ( 'NONE', ( #123, #252 ), #133, .T. ) ;
#213 = DIRECTION ( 'NONE',  ( -3.491481338843133355E-15, 1.224646799147353207E-16, -1.000000000000000000 ) ) ;
#214 = DIRECTION ( 'NONE',  ( 0.0000000000000000000, -1.000000000000000000, 0.0000000000000000000 ) ) ;
#215 = CYLINDRICAL_SURFACE ( 'NONE', #73, 2.999999999999998224 ) ;
#216 = AXIS2_PLACEMENT_3D ( 'NONE', #75, #115, #3 ) ;
#217 = VERTEX_POINT ( 'NONE', #32 ) ;
#218 = DIRECTION ( 'NONE',  ( 3.491481338843133355E-15, -1.224646799147353207E-16, 1.000000000000000000 ) ) ;
#219 = CARTESIAN_POINT ( 'NONE',  ( 9.671739152203461081E-14, -3.000000000000010658, 27.70096189432332423 ) ) ;
#220 = CARTESIAN_POINT ( 'NONE',  ( 2.304377683636468267E-13, 2.299999999999992717, 66.00000000000000000 ) ) ;
#221 = APPROVAL ( #45, 'UNSPECIFIED' ) ;
#222 = DIRECTION ( 'NONE',  ( -5.135813185032639159E-31, -1.000000000000000000, -1.445602896647342121E-16 ) ) ;
#223 = EDGE_CURVE ( 'NONE', #164, #164, #91, .T. ) ;
#224 = DATE_TIME_ROLE ( 'classification_date' ) ;
#225 = APPLICATION_PROTOCOL_DEFINITION ( 'international standard', 'config_control_design', 1994, #19 ) ;
#226 = PERSON_AND_ORGANIZATION ( #106, #49 ) ;
#227 = PERSON_AND_ORGANIZATION_ROLE ( 'classification_officer' ) ;
#228 = ORIENTED_EDGE ( 'NONE', *, *, #140, .T. ) ;
#229 = ORIENTED_EDGE ( 'NONE', *, *, #103, .T. ) ;
#230 = FACE_OUTER_BOUND ( 'NONE', #76, .T. ) ;
#231 = CARTESIAN_POINT ( 'NONE',  ( 3.494687022295776669E-15, -1.225771201542314901E-16, 1.000918144232071372 ) ) ;
#232 = EDGE_LOOP ( 'NONE', ( #158 ) ) ;
#233 = AXIS2_PLACEMENT_3D ( 'NONE', #12, #9, #240 ) ;
#234 = VERTEX_POINT ( 'NONE', #98 ) ;
#235 = EDGE_LOOP ( 'NONE', ( #26 ) ) ;
#236 = CYLINDRICAL_SURFACE ( 'NONE', #78, 2.750000000000003997 ) ;
#237 = FACE_OUTER_BOUND ( 'NONE', #50, .T. ) ;
#238 = ADVANCED_FACE ( 'NONE', ( #166 ), #241, .T. ) ;
#239 = AXIS2_PLACEMENT_3D ( 'NONE', #145, #57, #61 ) ;
#240 = DIRECTION ( 'NONE',  ( 0.0000000000000000000, 1.000000000000000000, 0.0000000000000000000 ) ) ;
#241 = PLANE ( 'NONE',  #42 ) ;
#242 = PERSON_AND_ORGANIZATION ( #106, #49 ) ;
#243 =( NAMED_UNIT ( * ) PLANE_ANGLE_UNIT ( ) SI_UNIT ( $, .RADIAN. ) );
#244 = AXIS2_PLACEMENT_3D ( 'NONE', #136, #113, #194 ) ;
#245 = LOCAL_TIME ( 13, 36, 7.000000000000000000, #85 ) ;
#246 = FACE_OUTER_BOUND ( 'NONE', #249, .T. ) ;
#247 = CC_DESIGN_PERSON_AND_ORGANIZATION_ASSIGNMENT ( #111, #89, ( #55 ) ) ;
#248 = EDGE_LOOP ( 'NONE', ( #228 ) ) ;
#249 = EDGE_LOOP ( 'NONE', ( #8 ) ) ;
#250 = CLOSED_SHELL ( 'NONE', ( #34, #196, #66, #84, #212, #208, #162 ) ) ;
#251 = CARTESIAN_POINT ( 'NONE',  ( 6.982962677686266711E-14, -8.654349589573485764E-15, 20.00000000000000000 ) ) ;
#252 = FACE_OUTER_BOUND ( 'NONE', #174, .T. ) ;
#253 = SHAPE_DEFINITION_REPRESENTATION ( #63, #88 ) ;
#254 = DIRECTION ( 'NONE',  ( 0.0000000000000000000, -1.000000000000000000, 0.0000000000000000000 ) ) ;
#255 = CARTESIAN_POINT ( 'NONE',  ( 2.279937314264566018E-13, 2.999999999999992895, 65.29999999999999716 ) ) ;
#256 = DIRECTION ( 'NONE',  ( 1.510825004591028205E-30, 1.000000000000000000, 4.327174794786742882E-16 ) ) ;
#257 = CLOSED_SHELL ( 'NONE', ( #189, #126, #238 ) ) ;
#258 = APPROVAL_PERSON_ORGANIZATION ( #101, #52, #125 ) ;
#259 = DIRECTION ( 'NONE',  ( -3.491481338843133355E-15, 1.224646799147353207E-16, -1.000000000000000000 ) ) ;
#260 = MANIFOLD_SOLID_BREP ( 'Corps-Déplacer/Copier1[2]', #257 ) ;
#261 = PERSON_AND_ORGANIZATION_ROLE ( 'design_owner' ) ;
#262 = MANIFOLD_SOLID_BREP ( 'Corps-Déplacer/Copier1[1]', #250 ) ;
#263 = COORDINATED_UNIVERSAL_TIME_OFFSET ( 1, 0, .AHEAD. ) ;
ENDSEC;
END-ISO-10303-21;
