ISO-10303-21;
HEADER;
FILE_DESCRIPTION (( 'STEP AP203' ),
    '1' );
FILE_NAME ('43331.step',
    '2021-10-13T11:36:07',
    ( '' ),
    ( '' ),
    'SwSTEP 2.0',
    'SolidWorks 2019',
    '' );
FILE_SCHEMA (( 'CONFIG_CONTROL_DESIGN' ));
ENDSEC;

DATA;
#1 = PERSON_AND_ORGANIZATION_ROLE ( 'creator' ) ;
#2 = PRODUCT_RELATED_PRODUCT_CATEGORY ( 'detail', '', ( #135 ) ) ;
#3 = EDGE_LOOP ( 'NONE', ( #94 ) ) ;
#4 = LOCAL_TIME ( 13, 36, 7.000000000000000000, #180 ) ;
#5 = ORIENTED_EDGE ( 'NONE', *, *, #230, .T. ) ;
#6 = EDGE_CURVE ( 'NONE', #54, #54, #187, .T. ) ;
#7 = ORIENTED_EDGE ( 'NONE', *, *, #38, .T. ) ;
#8 = DIRECTION ( 'NONE',  ( -3.491481338843133355E-15, 4.327174794786742882E-16, -1.000000000000000000 ) ) ;
#9 = FACE_OUTER_BOUND ( 'NONE', #72, .T. ) ;
#10 = DIRECTION ( 'NONE',  ( 0.0000000000000000000, 1.000000000000000000, 0.0000000000000000000 ) ) ;
#11 = AXIS2_PLACEMENT_3D ( 'NONE', #85, #102, #157 ) ;
#12 = APPROVAL_PERSON_ORGANIZATION ( #14, #206, #239 ) ;
#13 = ADVANCED_FACE ( 'NONE', ( #195 ), #250, .F. ) ;
#14 = PERSON_AND_ORGANIZATION ( #89, #171 ) ;
#15 = FACE_OUTER_BOUND ( 'NONE', #3, .T. ) ;
#16 = CARTESIAN_POINT ( 'NONE',  ( 9.601573681818617358E-14, 2.783974596215558872, 27.50000000000000000 ) ) ;
#17 = COORDINATED_UNIVERSAL_TIME_OFFSET ( 1, 0, .AHEAD. ) ;
#18 = CARTESIAN_POINT ( 'NONE',  ( 6.982962677686266711E-14, -2.650000000000012790, 20.00000000000000000 ) ) ;
#19 = CC_DESIGN_APPROVAL ( #76, ( #174 ) ) ;
#20 = ADVANCED_FACE ( 'NONE', ( #154, #96 ), #248, .T. ) ;
#21 = COORDINATED_UNIVERSAL_TIME_OFFSET ( 1, 0, .AHEAD. ) ;
#22 = DIRECTION ( 'NONE',  ( 0.0000000000000000000, 0.0000000000000000000, 1.000000000000000000 ) ) ;
#23 = AXIS2_PLACEMENT_3D ( 'NONE', #259, #22, #188 ) ;
#24 = CIRCLE ( 'NONE', #231, 2.650000000000003908 ) ;
#25 = EDGE_LOOP ( 'NONE', ( #169 ) ) ;
#26 = CC_DESIGN_DATE_AND_TIME_ASSIGNMENT ( #205, #142, ( #140 ) ) ;
#27 = DIRECTION ( 'NONE',  ( 4.275831445896958607E-31, 1.000000000000000000, 1.224646799147353207E-16 ) ) ;
#28 = EDGE_LOOP ( 'NONE', ( #193 ) ) ;
#29 = CC_DESIGN_PERSON_AND_ORGANIZATION_ASSIGNMENT ( #161, #86, ( #140 ) ) ;
#30 = DIRECTION ( 'NONE',  ( -3.491481338843133355E-15, 1.224646799147353207E-16, -1.000000000000000000 ) ) ;
#31 = AXIS2_PLACEMENT_3D ( 'NONE', #70, #8, #97 ) ;
#32 = CARTESIAN_POINT ( 'NONE',  ( 9.426999614876460059E-14, -1.170938346284344789E-14, 27.00000000000000000 ) ) ;
#33 = FACE_OUTER_BOUND ( 'NONE', #232, .T. ) ;
#34 = PERSON_AND_ORGANIZATION ( #89, #171 ) ;
#35 = CARTESIAN_POINT ( 'NONE',  ( 9.732213382929009906E-14, -1.206163927602441026E-14, 27.87416697508021102 ) ) ;
#36 = CARTESIAN_POINT ( 'NONE',  ( 2.279937314264566018E-13, -7.996943598432214956E-15, 65.29999999999999716 ) ) ;
#37 = DIRECTION ( 'NONE',  ( -4.275831445896958607E-31, -1.000000000000000000, -1.224646799147353207E-16 ) ) ;
#38 = EDGE_CURVE ( 'NONE', #207, #207, #24, .T. ) ;
#39 = AXIS2_PLACEMENT_3D ( 'NONE', #139, #160, #242 ) ;
#40 = CC_DESIGN_APPROVAL ( #206, ( #140 ) ) ;
#41 = VERTEX_POINT ( 'NONE', #129 ) ;
#42 = ADVANCED_FACE ( 'NONE', ( #198, #98 ), #176, .T. ) ;
#43 = APPLICATION_PROTOCOL_DEFINITION ( 'international standard', 'config_control_design', 1994, #61 ) ;
#44 = CIRCLE ( 'NONE', #166, 3.000000000000000444 ) ;
#45 = APPROVAL_PERSON_ORGANIZATION ( #210, #130, #104 ) ;
#46 = ORIENTED_EDGE ( 'NONE', *, *, #100, .T. ) ;
#47 = AXIS2_PLACEMENT_3D ( 'NONE', #108, #241, #119 ) ;
#48 = DIRECTION ( 'NONE',  ( 0.0000000000000000000, 1.000000000000000000, 0.0000000000000000000 ) ) ;
#49 = ORIENTED_EDGE ( 'NONE', *, *, #228, .F. ) ;
#50 = EDGE_LOOP ( 'NONE', ( #113 ) ) ;
#51 = AXIS2_PLACEMENT_3D ( 'NONE', #247, #68, #48 ) ;
#52 = DIRECTION ( 'NONE',  ( -5.135813185032639159E-31, -1.000000000000000000, -1.445602896647342121E-16 ) ) ;
#53 = DIRECTION ( 'NONE',  ( 1.510825004591027855E-30, 1.000000000000000000, 4.327174794786742389E-16 ) ) ;
#54 = VERTEX_POINT ( 'NONE', #16 ) ;
#55 = LOCAL_TIME ( 13, 36, 7.000000000000000000, #21 ) ;
#56 = DATE_AND_TIME ( #253, #4 ) ;
#57 = DIRECTION ( 'NONE',  ( 3.491481338843133355E-15, -4.327174794786742882E-16, 1.000000000000000000 ) ) ;
#58 = PERSON_AND_ORGANIZATION_ROLE ( 'design_supplier' ) ;
#59 = DIRECTION ( 'NONE',  ( 0.0000000000000000000, 1.000000000000000000, 0.0000000000000000000 ) ) ;
#60 =( NAMED_UNIT ( * ) SI_UNIT ( $, .STERADIAN. ) SOLID_ANGLE_UNIT ( ) );
#61 = APPLICATION_CONTEXT ( 'configuration controlled 3d designs of mechanical parts and assemblies' ) ;
#62 = APPLICATION_PROTOCOL_DEFINITION ( 'international standard', 'config_control_design', 1994, #233 ) ;
#63 = EDGE_CURVE ( 'NONE', #90, #90, #256, .T. ) ;
#64 = PERSON_AND_ORGANIZATION_ROLE ( 'design_owner' ) ;
#65 = PERSON_AND_ORGANIZATION ( #89, #171 ) ;
#66 = APPROVAL_PERSON_ORGANIZATION ( #65, #76, #148 ) ;
#67 = EDGE_LOOP ( 'NONE', ( #212 ) ) ;
#68 = DIRECTION ( 'NONE',  ( -3.491481338843133355E-15, 4.327174794786742882E-16, -1.000000000000000000 ) ) ;
#69 = AXIS2_PLACEMENT_3D ( 'NONE', #254, #79, #219 ) ;
#70 = CARTESIAN_POINT ( 'NONE',  ( 0.0000000000000000000, 0.0000000000000000000, 0.0000000000000000000 ) ) ;
#71 = PRODUCT_DEFINITION_SHAPE ( 'NONE', 'NONE',  #174 ) ;
#72 = EDGE_LOOP ( 'NONE', ( #93 ) ) ;
#73 = PLANE ( 'NONE',  #11 ) ;
#74 = AXIS2_PLACEMENT_3D ( 'NONE', #221, #237, #52 ) ;
#75 = CALENDAR_DATE ( 2021, 13, 10 ) ;
#76 = APPROVAL ( #146, 'UNSPECIFIED' ) ;
#77 = FACE_OUTER_BOUND ( 'NONE', #114, .T. ) ;
#78 = APPROVAL_STATUS ( 'not_yet_approved' ) ;
#79 = DIRECTION ( 'NONE',  ( -3.491481338843133355E-15, 1.224646799147353207E-16, -1.000000000000000000 ) ) ;
#80 = PERSON_AND_ORGANIZATION ( #89, #171 ) ;
#81 = FACE_OUTER_BOUND ( 'NONE', #155, .T. ) ;
#82 = ADVANCED_FACE ( 'NONE', ( #141, #99 ), #235, .T. ) ;
#83 = CC_DESIGN_APPROVAL ( #130, ( #197 ) ) ;
#84 = COORDINATED_UNIVERSAL_TIME_OFFSET ( 1, 0, .AHEAD. ) ;
#85 = CARTESIAN_POINT ( 'NONE',  ( 6.982962677686266711E-14, 2.249639673992779843E-32, 20.00000000000000000 ) ) ;
#86 = PERSON_AND_ORGANIZATION_ROLE ( 'classification_officer' ) ;
#87 = VERTEX_POINT ( 'NONE', #164 ) ;
#88 = VERTEX_POINT ( 'NONE', #168 ) ;
#89 = PERSON ( 'UNSPECIFIED', 'UNSPECIFIED', 'UNSPECIFIED', ('UNSPECIFIED'), ('UNSPECIFIED'), ('UNSPECIFIED') ) ;
#90 = VERTEX_POINT ( 'NONE', #261 ) ;
#91 = CC_DESIGN_DATE_AND_TIME_ASSIGNMENT ( #226, #223, ( #174 ) ) ;
#92 = AXIS2_PLACEMENT_3D ( 'NONE', #32, #182, #118 ) ;
#93 = ORIENTED_EDGE ( 'NONE', *, *, #38, .F. ) ;
#94 = ORIENTED_EDGE ( 'NONE', *, *, #185, .F. ) ;
#95 = ADVANCED_FACE ( 'NONE', ( #9 ), #73, .T. ) ;
#96 = FACE_OUTER_BOUND ( 'NONE', #246, .T. ) ;
#97 = DIRECTION ( 'NONE',  ( 1.510825004591027855E-30, 1.000000000000000000, 4.327174794786742389E-16 ) ) ;
#98 = FACE_OUTER_BOUND ( 'NONE', #189, .T. ) ;
#99 = FACE_OUTER_BOUND ( 'NONE', #25, .T. ) ;
#100 = EDGE_CURVE ( 'NONE', #87, #87, #216, .T. ) ;
#101 = PERSON_AND_ORGANIZATION_ROLE ( 'creator' ) ;
#102 = DIRECTION ( 'NONE',  ( 3.491481338843133355E-15, -1.224646799147353207E-16, 1.000000000000000000 ) ) ;
#103 = AXIS2_PLACEMENT_3D ( 'NONE', #124, #125, #178 ) ;
#104 = APPROVAL_ROLE ( '' ) ;
#105 = DIRECTION ( 'NONE',  ( 3.491481338843133355E-15, -1.224646799147353207E-16, 1.000000000000000000 ) ) ;
#106 = DIRECTION ( 'NONE',  ( 0.0000000000000000000, 1.000000000000000000, 0.0000000000000000000 ) ) ;
#107 = UNCERTAINTY_MEASURE_WITH_UNIT (LENGTH_MEASURE( 1.000000000000000082E-05 ), #263, 'distance_accuracy_value', 'NONE');
#108 = CARTESIAN_POINT ( 'NONE',  ( 1.003458453655676286E-13, -1.243638360591452220E-14, 28.74019237886466627 ) ) ;
#109 = APPROVAL_DATE_TIME ( #110, #76 ) ;
#110 = DATE_AND_TIME ( #209, #55 ) ;
#111 = CARTESIAN_POINT ( 'NONE',  ( 9.426999614876460059E-14, 2.649999999999995914, 27.00000000000000000 ) ) ;
#112 =( NAMED_UNIT ( * ) PLANE_ANGLE_UNIT ( ) SI_UNIT ( $, .RADIAN. ) );
#113 = ORIENTED_EDGE ( 'NONE', *, *, #228, .T. ) ;
#114 = EDGE_LOOP ( 'NONE', ( #133 ) ) ;
#115 = ORIENTED_EDGE ( 'NONE', *, *, #147, .F. ) ;
#116 = EDGE_LOOP ( 'NONE', ( #46 ) ) ;
#117 = DIRECTION ( 'NONE',  ( 0.0000000000000000000, -1.000000000000000000, 0.0000000000000000000 ) ) ;
#118 = DIRECTION ( 'NONE',  ( 1.556511532596635338E-30, 1.000000000000000000, 4.327174794786742389E-16 ) ) ;
#119 = DIRECTION ( 'NONE',  ( 0.0000000000000000000, -1.000000000000000000, 0.0000000000000000000 ) ) ;
#120 = APPROVAL_DATE_TIME ( #56, #130 ) ;
#121 = DIRECTION ( 'NONE',  ( -3.491481338843133355E-15, 4.327174794786742882E-16, -1.000000000000000000 ) ) ;
#122 = CONICAL_SURFACE ( 'NONE', #74, 2.999999999999993783, 1.221730476396026388 ) ;
#123 = DESIGN_CONTEXT ( 'detailed design', #233, 'design' ) ;
#124 = CARTESIAN_POINT ( 'NONE',  ( 6.982962677686266711E-14, -8.654349589573485764E-15, 20.00000000000000000 ) ) ;
#125 = DIRECTION ( 'NONE',  ( -3.491481338843133355E-15, 1.224646799147353207E-16, -1.000000000000000000 ) ) ;
#126 = CARTESIAN_POINT ( 'NONE',  ( 2.279937314264566018E-13, 2.999999999999992895, 65.29999999999999716 ) ) ;
#127 = AXIS2_PLACEMENT_3D ( 'NONE', #183, #218, #163 ) ;
#128 = CC_DESIGN_PERSON_AND_ORGANIZATION_ASSIGNMENT ( #80, #101, ( #197 ) ) ;
#129 = CARTESIAN_POINT ( 'NONE',  ( 2.304377683636468267E-13, 2.299999999999992717, 66.00000000000000000 ) ) ;
#130 = APPROVAL ( #167, 'UNSPECIFIED' ) ;
#131 = ORIENTED_EDGE ( 'NONE', *, *, #100, .F. ) ;
#132 = CONICAL_SURFACE ( 'NONE', #69, 2.300000000000000711, 0.7853981633974437271 ) ;
#133 = ORIENTED_EDGE ( 'NONE', *, *, #230, .F. ) ;
#134 = EDGE_LOOP ( 'NONE', ( #229 ) ) ;
#135 = PRODUCT ( '43331', '43331', '', ( #186 ) ) ;
#136 = CARTESIAN_POINT ( 'NONE',  ( 6.982962677686266711E-14, -8.654349589573485764E-15, 20.00000000000000000 ) ) ;
#137 = CIRCLE ( 'NONE', #191, 2.650000000000007905 ) ;
#138 = FACE_OUTER_BOUND ( 'NONE', #67, .T. ) ;
#139 = CARTESIAN_POINT ( 'NONE',  ( 0.0000000000000000000, 0.0000000000000000000, 0.0000000000000000000 ) ) ;
#140 = SECURITY_CLASSIFICATION ( '', '', #202 ) ;
#141 = FACE_OUTER_BOUND ( 'NONE', #28, .T. ) ;
#142 = DATE_TIME_ROLE ( 'classification_date' ) ;
#143 = CALENDAR_DATE ( 2021, 13, 10 ) ;
#144 = COORDINATED_UNIVERSAL_TIME_OFFSET ( 1, 0, .AHEAD. ) ;
#145 = CLOSED_SHELL ( 'NONE', ( #150, #20, #95 ) ) ;
#146 = APPROVAL_STATUS ( 'not_yet_approved' ) ;
#147 = EDGE_CURVE ( 'NONE', #243, #243, #137, .T. ) ;
#148 = APPROVAL_ROLE ( '' ) ;
#149 = CLOSED_SHELL ( 'NONE', ( #82, #244, #13, #234, #42, #190, #201 ) ) ;
#150 = ADVANCED_FACE ( 'NONE', ( #257 ), #122, .T. ) ;
#151 = EDGE_LOOP ( 'NONE', ( #7 ) ) ;
#152 = AXIS2_PLACEMENT_3D ( 'NONE', #204, #236, #53 ) ;
#153 = DIRECTION ( 'NONE',  ( -3.491481338843133355E-15, 1.224646799147353207E-16, -1.000000000000000000 ) ) ;
#154 = FACE_OUTER_BOUND ( 'NONE', #151, .T. ) ;
#155 = EDGE_LOOP ( 'NONE', ( #5 ) ) ;
#156 = LOCAL_TIME ( 13, 36, 7.000000000000000000, #17 ) ;
#157 = DIRECTION ( 'NONE',  ( -4.275831445896958607E-31, -1.000000000000000000, -1.224646799147353207E-16 ) ) ;
#158 = CYLINDRICAL_SURFACE ( 'NONE', #152, 2.650000000000003908 ) ;
#159 = SHAPE_DEFINITION_REPRESENTATION ( #71, #194 ) ;
#160 = DIRECTION ( 'NONE',  ( -3.491481338843133355E-15, 1.224646799147353207E-16, -1.000000000000000000 ) ) ;
#161 = PERSON_AND_ORGANIZATION ( #89, #171 ) ;
#162 = DIRECTION ( 'NONE',  ( 0.0000000000000000000, -1.000000000000000000, 0.0000000000000000000 ) ) ;
#163 = DIRECTION ( 'NONE',  ( -4.360596100499395900E-31, -1.000000000000000000, -1.227398685832644831E-16 ) ) ;
#164 = CARTESIAN_POINT ( 'NONE',  ( 3.367607494212292770E-15, -2.650000000000003908, 0.9645211208054501606 ) ) ;
#165 = PERSON_AND_ORGANIZATION ( #89, #171 ) ;
#166 = AXIS2_PLACEMENT_3D ( 'NONE', #36, #255, #106 ) ;
#167 = APPROVAL_STATUS ( 'not_yet_approved' ) ;
#168 = CARTESIAN_POINT ( 'NONE',  ( 6.982962677686266711E-14, -2.650000000000012790, 20.00000000000000000 ) ) ;
#169 = ORIENTED_EDGE ( 'NONE', *, *, #185, .T. ) ;
#170 = EDGE_LOOP ( 'NONE', ( #49 ) ) ;
#171 = ORGANIZATION ( 'UNSPECIFIED', 'UNSPECIFIED', '' ) ;
#172 = CC_DESIGN_SECURITY_CLASSIFICATION ( #140, ( #197 ) ) ;
#173 = EDGE_LOOP ( 'NONE', ( #192 ) ) ;
#174 = PRODUCT_DEFINITION ( 'UNKNOWN', '', #197, #123 ) ;
#175 = PLANE ( 'NONE',  #225 ) ;
#176 = CONICAL_SURFACE ( 'NONE', #47, 3.500000000000011102, 0.5235987755983005920 ) ;
#177 = LOCAL_TIME ( 13, 36, 7.000000000000000000, #144 ) ;
#178 = DIRECTION ( 'NONE',  ( 0.0000000000000000000, -1.000000000000000000, 0.0000000000000000000 ) ) ;
#179 = MANIFOLD_SOLID_BREP ( 'Corps-Déplacer/Copier1[2]', #145 ) ;
#180 = COORDINATED_UNIVERSAL_TIME_OFFSET ( 1, 0, .AHEAD. ) ;
#181 = FACE_BOUND ( 'NONE', #50, .T. ) ;
#182 = DIRECTION ( 'NONE',  ( -3.491481338843133355E-15, 4.327174794786742882E-16, -1.000000000000000000 ) ) ;
#183 = CARTESIAN_POINT ( 'NONE',  ( 3.367607494212293953E-15, -1.181197703304412622E-16, 0.9645211208054504937 ) ) ;
#184 = PERSON_AND_ORGANIZATION ( #89, #171 ) ;
#185 = EDGE_CURVE ( 'NONE', #211, #211, #44, .T. ) ;
#186 = MECHANICAL_CONTEXT ( 'NONE', #61, 'mechanical' ) ;
#187 = CIRCLE ( 'NONE', #51, 2.783974596215570863 ) ;
#188 = DIRECTION ( 'NONE',  ( 1.000000000000000000, 0.0000000000000000000, 0.0000000000000000000 ) ) ;
#189 = EDGE_LOOP ( 'NONE', ( #215 ) ) ;
#190 = ADVANCED_FACE ( 'NONE', ( #33, #138 ), #240, .F. ) ;
#191 = AXIS2_PLACEMENT_3D ( 'NONE', #199, #121, #59 ) ;
#192 = ORIENTED_EDGE ( 'NONE', *, *, #147, .T. ) ;
#193 = ORIENTED_EDGE ( 'NONE', *, *, #63, .T. ) ;
#194 = ADVANCED_BREP_SHAPE_REPRESENTATION ( '43331', ( #262, #179, #23 ), #249 ) ;
#195 = FACE_OUTER_BOUND ( 'NONE', #170, .T. ) ;
#196 = CIRCLE ( 'NONE', #103, 2.650000000000003908 ) ;
#197 = PRODUCT_DEFINITION_FORMATION_WITH_SPECIFIED_SOURCE ( 'ANY', '', #135, .NOT_KNOWN. ) ;
#198 = FACE_BOUND ( 'NONE', #134, .T. ) ;
#199 = CARTESIAN_POINT ( 'NONE',  ( 9.426999614876460059E-14, -1.168337194592420578E-14, 27.00000000000000000 ) ) ;
#200 = DIRECTION ( 'NONE',  ( -3.491481338843133355E-15, 1.224646799147353207E-16, -1.000000000000000000 ) ) ;
#201 = ADVANCED_FACE ( 'NONE', ( #81 ), #175, .F. ) ;
#202 = SECURITY_CLASSIFICATION_LEVEL ( 'unclassified' ) ;
#203 = AXIS2_PLACEMENT_3D ( 'NONE', #35, #57, #162 ) ;
#204 = CARTESIAN_POINT ( 'NONE',  ( 0.0000000000000000000, 0.0000000000000000000, 0.0000000000000000000 ) ) ;
#205 = DATE_AND_TIME ( #222, #227 ) ;
#206 = APPROVAL ( #78, 'UNSPECIFIED' ) ;
#207 = VERTEX_POINT ( 'NONE', #18 ) ;
#208 = AXIS2_PLACEMENT_3D ( 'NONE', #214, #153, #27 ) ;
#209 = CALENDAR_DATE ( 2021, 13, 10 ) ;
#210 = PERSON_AND_ORGANIZATION ( #89, #171 ) ;
#211 = VERTEX_POINT ( 'NONE', #126 ) ;
#212 = ORIENTED_EDGE ( 'NONE', *, *, #6, .T. ) ;
#213 = CIRCLE ( 'NONE', #245, 2.300000000000000711 ) ;
#214 = CARTESIAN_POINT ( 'NONE',  ( 2.304377683636468267E-13, 1.724723750061124754E-32, 66.00000000000000000 ) ) ;
#215 = ORIENTED_EDGE ( 'NONE', *, *, #63, .F. ) ;
#216 = CIRCLE ( 'NONE', #127, 2.650000000000003908 ) ;
#217 = CARTESIAN_POINT ( 'NONE',  ( 2.304377683636468267E-13, -8.082668874372532400E-15, 66.00000000000000000 ) ) ;
#218 = DIRECTION ( 'NONE',  ( -3.491481338843133355E-15, 1.224646799147353207E-16, -1.000000000000000000 ) ) ;
#219 = DIRECTION ( 'NONE',  ( 0.0000000000000000000, 1.000000000000000000, 0.0000000000000000000 ) ) ;
#220 = CC_DESIGN_PERSON_AND_ORGANIZATION_ASSIGNMENT ( #165, #64, ( #135 ) ) ;
#221 = CARTESIAN_POINT ( 'NONE',  ( 3.812385842504470444E-15, -1.337204947137066162E-16, 1.091910702798619459 ) ) ;
#222 = CALENDAR_DATE ( 2021, 13, 10 ) ;
#223 = DATE_TIME_ROLE ( 'creation_date' ) ;
#224 = DATE_AND_TIME ( #75, #156 ) ;
#225 = AXIS2_PLACEMENT_3D ( 'NONE', #251, #105, #37 ) ;
#226 = DATE_AND_TIME ( #143, #177 ) ;
#227 = LOCAL_TIME ( 13, 36, 7.000000000000000000, #84 ) ;
#228 = EDGE_CURVE ( 'NONE', #41, #41, #213, .T. ) ;
#229 = ORIENTED_EDGE ( 'NONE', *, *, #6, .F. ) ;
#230 = EDGE_CURVE ( 'NONE', #88, #88, #196, .T. ) ;
#231 = AXIS2_PLACEMENT_3D ( 'NONE', #136, #30, #117 ) ;
#232 = EDGE_LOOP ( 'NONE', ( #115 ) ) ;
#233 = APPLICATION_CONTEXT ( 'configuration controlled 3d designs of mechanical parts and assemblies' ) ;
#234 = ADVANCED_FACE ( 'NONE', ( #252, #77 ), #158, .T. ) ;
#235 = CYLINDRICAL_SURFACE ( 'NONE', #39, 2.999999999999998224 ) ;
#236 = DIRECTION ( 'NONE',  ( -3.491481338843133355E-15, 4.327174794786742882E-16, -1.000000000000000000 ) ) ;
#237 = DIRECTION ( 'NONE',  ( 3.491481338843133355E-15, -1.224646799147353207E-16, 1.000000000000000000 ) ) ;
#238 = CC_DESIGN_PERSON_AND_ORGANIZATION_ASSIGNMENT ( #184, #1, ( #174 ) ) ;
#239 = APPROVAL_ROLE ( '' ) ;
#240 = TOROIDAL_SURFACE ( 'NONE', #92, 3.650000000000008793, 1.000000000000000000 ) ;
#241 = DIRECTION ( 'NONE',  ( 3.491481338843133355E-15, -4.327174794786742882E-16, 1.000000000000000000 ) ) ;
#242 = DIRECTION ( 'NONE',  ( 4.275831445896958607E-31, 1.000000000000000000, 1.224646799147353454E-16 ) ) ;
#243 = VERTEX_POINT ( 'NONE', #111 ) ;
#244 = ADVANCED_FACE ( 'NONE', ( #15, #181 ), #132, .T. ) ;
#245 = AXIS2_PLACEMENT_3D ( 'NONE', #217, #200, #10 ) ;
#246 = EDGE_LOOP ( 'NONE', ( #131 ) ) ;
#247 = CARTESIAN_POINT ( 'NONE',  ( 9.601573681818617358E-14, -1.189973068566354293E-14, 27.50000000000000000 ) ) ;
#248 = CYLINDRICAL_SURFACE ( 'NONE', #31, 2.650000000000003908 ) ;
#249 =( GEOMETRIC_REPRESENTATION_CONTEXT ( 3 ) GLOBAL_UNCERTAINTY_ASSIGNED_CONTEXT ( ( #107 ) ) GLOBAL_UNIT_ASSIGNED_CONTEXT ( ( #263, #112, #60 ) ) REPRESENTATION_CONTEXT ( 'NONE', 'WORKASPACE' ) );
#250 = PLANE ( 'NONE',  #208 ) ;
#251 = CARTESIAN_POINT ( 'NONE',  ( 6.982962677686266711E-14, 2.249639673992779843E-32, 20.00000000000000000 ) ) ;
#252 = FACE_OUTER_BOUND ( 'NONE', #173, .T. ) ;
#253 = CALENDAR_DATE ( 2021, 13, 10 ) ;
#254 = CARTESIAN_POINT ( 'NONE',  ( 2.304377683636468267E-13, -8.082668874372532400E-15, 66.00000000000000000 ) ) ;
#255 = DIRECTION ( 'NONE',  ( -3.491481338843133355E-15, 1.224646799147353207E-16, -1.000000000000000000 ) ) ;
#256 = CIRCLE ( 'NONE', #203, 2.999999999999998224 ) ;
#257 = FACE_OUTER_BOUND ( 'NONE', #116, .T. ) ;
#258 = APPROVAL_DATE_TIME ( #224, #206 ) ;
#259 = CARTESIAN_POINT ( 'NONE',  ( 0.0000000000000000000, 0.0000000000000000000, 0.0000000000000000000 ) ) ;
#260 = CC_DESIGN_PERSON_AND_ORGANIZATION_ASSIGNMENT ( #34, #58, ( #197 ) ) ;
#261 = CARTESIAN_POINT ( 'NONE',  ( 9.732213382929009906E-14, -3.000000000000010658, 27.87416697508021102 ) ) ;
#262 = MANIFOLD_SOLID_BREP ( 'Corps-Déplacer/Copier1[1]', #149 ) ;
#263 =( LENGTH_UNIT ( ) NAMED_UNIT ( * ) SI_UNIT ( .MILLI., .METRE. ) );
ENDSEC;
END-ISO-10303-21;
