ISO-10303-21;
HEADER;
FILE_DESCRIPTION (( 'STEP AP203' ),
    '1' );
FILE_NAME ('43330.step',
    '2021-10-13T11:36:06',
    ( '' ),
    ( '' ),
    'SwSTEP 2.0',
    'SolidWorks 2019',
    '' );
FILE_SCHEMA (( 'CONFIG_CONTROL_DESIGN' ));
ENDSEC;

DATA;
#1 = ADVANCED_FACE ( 'NONE', ( #123, #125 ), #202, .T. ) ;
#2 = CARTESIAN_POINT ( 'NONE',  ( 6.982962677686266711E-14, 2.249639673992779843E-32, 20.00000000000000000 ) ) ;
#3 = DIRECTION ( 'NONE',  ( 0.0000000000000000000, -1.000000000000000000, 0.0000000000000000000 ) ) ;
#4 = AXIS2_PLACEMENT_3D ( 'NONE', #2, #263, #91 ) ;
#5 = CALENDAR_DATE ( 2021, 13, 10 ) ;
#6 = PERSON_AND_ORGANIZATION ( #230, #115 ) ;
#7 = PRODUCT_DEFINITION_SHAPE ( 'NONE', 'NONE',  #62 ) ;
#8 = COORDINATED_UNIVERSAL_TIME_OFFSET ( 1, 0, .AHEAD. ) ;
#9 = LOCAL_TIME ( 13, 36, 6.000000000000000000, #169 ) ;
#10 = APPROVAL ( #253, 'UNSPECIFIED' ) ;
#11 = COORDINATED_UNIVERSAL_TIME_OFFSET ( 1, 0, .AHEAD. ) ;
#12 = DIRECTION ( 'NONE',  ( 4.275831445896958607E-31, 1.000000000000000000, 1.224646799147353454E-16 ) ) ;
#13 = CIRCLE ( 'NONE', #161, 2.999999999999998224 ) ;
#14 = CC_DESIGN_DATE_AND_TIME_ASSIGNMENT ( #158, #15, ( #98 ) ) ;
#15 = DATE_TIME_ROLE ( 'classification_date' ) ;
#16 = CARTESIAN_POINT ( 'NONE',  ( 9.762450498291786211E-14, -1.209911370901342256E-14, 27.96076951545865441 ) ) ;
#17 = CALENDAR_DATE ( 2021, 13, 10 ) ;
#18 = DIRECTION ( 'NONE',  ( -3.491481338843133355E-15, 1.224646799147353207E-16, -1.000000000000000000 ) ) ;
#19 = CLOSED_SHELL ( 'NONE', ( #27, #154, #117 ) ) ;
#20 = DESIGN_CONTEXT ( 'detailed design', #232, 'design' ) ;
#21 = ORIENTED_EDGE ( 'NONE', *, *, #74, .T. ) ;
#22 = CARTESIAN_POINT ( 'NONE',  ( 0.0000000000000000000, 0.0000000000000000000, 0.0000000000000000000 ) ) ;
#23 = DIRECTION ( 'NONE',  ( -4.275831445896958607E-31, -1.000000000000000000, -1.224646799147353207E-16 ) ) ;
#24 = LOCAL_TIME ( 13, 36, 6.000000000000000000, #99 ) ;
#25 = FACE_OUTER_BOUND ( 'NONE', #84, .T. ) ;
#26 = DIRECTION ( 'NONE',  ( -3.491481338843133355E-15, 4.327174794786742882E-16, -1.000000000000000000 ) ) ;
#27 = ADVANCED_FACE ( 'NONE', ( #80 ), #52, .T. ) ;
#28 = APPROVAL_DATE_TIME ( #54, #10 ) ;
#29 = AXIS2_PLACEMENT_3D ( 'NONE', #248, #228, #261 ) ;
#30 = PERSON_AND_ORGANIZATION_ROLE ( 'design_supplier' ) ;
#31 =( LENGTH_UNIT ( ) NAMED_UNIT ( * ) SI_UNIT ( .MILLI., .METRE. ) );
#32 = DATE_TIME_ROLE ( 'creation_date' ) ;
#33 = APPROVAL_PERSON_ORGANIZATION ( #95, #212, #213 ) ;
#34 =( NAMED_UNIT ( * ) PLANE_ANGLE_UNIT ( ) SI_UNIT ( $, .RADIAN. ) );
#35 = APPROVAL_STATUS ( 'not_yet_approved' ) ;
#36 = ADVANCED_FACE ( 'NONE', ( #37, #156 ), #120, .T. ) ;
#37 = FACE_OUTER_BOUND ( 'NONE', #157, .T. ) ;
#38 = APPROVAL_DATE_TIME ( #82, #92 ) ;
#39 = DIRECTION ( 'NONE',  ( 4.275831445896958607E-31, 1.000000000000000000, 1.224646799147353207E-16 ) ) ;
#40 = CIRCLE ( 'NONE', #186, 2.600000000000003642 ) ;
#41 = EDGE_LOOP ( 'NONE', ( #241 ) ) ;
#42 = ORIENTED_EDGE ( 'NONE', *, *, #55, .F. ) ;
#43 = ORIENTED_EDGE ( 'NONE', *, *, #113, .T. ) ;
#44 = UNCERTAINTY_MEASURE_WITH_UNIT (LENGTH_MEASURE( 1.000000000000000082E-05 ), #31, 'distance_accuracy_value', 'NONE');
#45 = DIRECTION ( 'NONE',  ( -3.491481338843133355E-15, 1.224646799147353207E-16, -1.000000000000000000 ) ) ;
#46 = ADVANCED_FACE ( 'NONE', ( #257 ), #81, .F. ) ;
#47 = DIRECTION ( 'NONE',  ( -3.491481338843133355E-15, 1.224646799147353207E-16, -1.000000000000000000 ) ) ;
#48 = CYLINDRICAL_SURFACE ( 'NONE', #231, 2.600000000000003642 ) ;
#49 = CIRCLE ( 'NONE', #94, 2.733974596215569264 ) ;
#50 = DIRECTION ( 'NONE',  ( 0.0000000000000000000, -1.000000000000000000, 0.0000000000000000000 ) ) ;
#51 = DIRECTION ( 'NONE',  ( 3.491481338843133355E-15, -4.327174794786742882E-16, 1.000000000000000000 ) ) ;
#52 = CONICAL_SURFACE ( 'NONE', #177, 2.999999999999993783, 1.221730476396026388 ) ;
#53 = CARTESIAN_POINT ( 'NONE',  ( 9.426999614876460059E-14, 2.599999999999996092, 27.00000000000000000 ) ) ;
#54 = DATE_AND_TIME ( #140, #180 ) ;
#55 = EDGE_CURVE ( 'NONE', #108, #108, #13, .T. ) ;
#56 = APPLICATION_PROTOCOL_DEFINITION ( 'international standard', 'config_control_design', 1994, #197 ) ;
#57 = CIRCLE ( 'NONE', #210, 2.300000000000000711 ) ;
#58 = APPROVAL_DATE_TIME ( #100, #212 ) ;
#59 = ORIENTED_EDGE ( 'NONE', *, *, #176, .F. ) ;
#60 = ORIENTED_EDGE ( 'NONE', *, *, #176, .T. ) ;
#61 = ORIENTED_EDGE ( 'NONE', *, *, #152, .T. ) ;
#62 = PRODUCT_DEFINITION ( 'UNKNOWN', '', #171, #20 ) ;
#63 = COORDINATED_UNIVERSAL_TIME_OFFSET ( 1, 0, .AHEAD. ) ;
#64 = EDGE_LOOP ( 'NONE', ( #142 ) ) ;
#65 = AXIS2_PLACEMENT_3D ( 'NONE', #185, #85, #23 ) ;
#66 = PRODUCT_RELATED_PRODUCT_CATEGORY ( 'detail', '', ( #97 ) ) ;
#67 = VERTEX_POINT ( 'NONE', #127 ) ;
#68 = DIRECTION ( 'NONE',  ( -3.491481338843133355E-15, 1.224646799147353207E-16, -1.000000000000000000 ) ) ;
#69 = DIRECTION ( 'NONE',  ( 0.0000000000000000000, 1.000000000000000000, 0.0000000000000000000 ) ) ;
#70 = DIRECTION ( 'NONE',  ( -4.444453717816691857E-31, -1.000000000000000000, -1.251002506714041814E-16 ) ) ;
#71 = CC_DESIGN_PERSON_AND_ORGANIZATION_ASSIGNMENT ( #116, #233, ( #97 ) ) ;
#72 = PERSON_AND_ORGANIZATION ( #230, #115 ) ;
#73 = CALENDAR_DATE ( 2021, 13, 10 ) ;
#74 = EDGE_CURVE ( 'NONE', #223, #223, #111, .T. ) ;
#75 = APPLICATION_PROTOCOL_DEFINITION ( 'international standard', 'config_control_design', 1994, #232 ) ;
#76 = VERTEX_POINT ( 'NONE', #53 ) ;
#77 = APPROVAL_ROLE ( '' ) ;
#78 =( GEOMETRIC_REPRESENTATION_CONTEXT ( 3 ) GLOBAL_UNCERTAINTY_ASSIGNED_CONTEXT ( ( #44 ) ) GLOBAL_UNIT_ASSIGNED_CONTEXT ( ( #31, #34, #191 ) ) REPRESENTATION_CONTEXT ( 'NONE', 'WORKASPACE' ) );
#79 = CC_DESIGN_APPROVAL ( #92, ( #98 ) ) ;
#80 = FACE_OUTER_BOUND ( 'NONE', #238, .T. ) ;
#81 = PLANE ( 'NONE',  #101 ) ;
#82 = DATE_AND_TIME ( #17, #188 ) ;
#83 = EDGE_LOOP ( 'NONE', ( #124 ) ) ;
#84 = EDGE_LOOP ( 'NONE', ( #259 ) ) ;
#85 = DIRECTION ( 'NONE',  ( 3.491481338843133355E-15, -1.224646799147353207E-16, 1.000000000000000000 ) ) ;
#86 = ADVANCED_FACE ( 'NONE', ( #225, #246 ), #192, .T. ) ;
#87 = VERTEX_POINT ( 'NONE', #162 ) ;
#88 = AXIS2_PLACEMENT_3D ( 'NONE', #149, #147, #144 ) ;
#89 = FACE_OUTER_BOUND ( 'NONE', #41, .T. ) ;
#90 = ADVANCED_BREP_SHAPE_REPRESENTATION ( '43330', ( #220, #128, #217 ), #78 ) ;
#91 = DIRECTION ( 'NONE',  ( -4.275831445896958607E-31, -1.000000000000000000, -1.224646799147353207E-16 ) ) ;
#92 = APPROVAL ( #35, 'UNSPECIFIED' ) ;
#93 = FACE_OUTER_BOUND ( 'NONE', #221, .T. ) ;
#94 = AXIS2_PLACEMENT_3D ( 'NONE', #146, #189, #245 ) ;
#95 = PERSON_AND_ORGANIZATION ( #230, #115 ) ;
#96 = PERSON_AND_ORGANIZATION_ROLE ( 'classification_officer' ) ;
#97 = PRODUCT ( '43330', '43330', '', ( #170 ) ) ;
#98 = SECURITY_CLASSIFICATION ( '', '', #193 ) ;
#99 = COORDINATED_UNIVERSAL_TIME_OFFSET ( 1, 0, .AHEAD. ) ;
#100 = DATE_AND_TIME ( #5, #143 ) ;
#101 = AXIS2_PLACEMENT_3D ( 'NONE', #155, #237, #39 ) ;
#102 = APPROVAL_PERSON_ORGANIZATION ( #181, #92, #236 ) ;
#103 = ORIENTED_EDGE ( 'NONE', *, *, #74, .F. ) ;
#104 = ORIENTED_EDGE ( 'NONE', *, *, #55, .T. ) ;
#105 = DIRECTION ( 'NONE',  ( 3.491481338843133355E-15, -1.224646799147353207E-16, 1.000000000000000000 ) ) ;
#106 = CC_DESIGN_APPROVAL ( #10, ( #171 ) ) ;
#107 = EDGE_LOOP ( 'NONE', ( #43 ) ) ;
#108 = VERTEX_POINT ( 'NONE', #184 ) ;
#109 = DIRECTION ( 'NONE',  ( 0.0000000000000000000, 1.000000000000000000, 0.0000000000000000000 ) ) ;
#110 = PLANE ( 'NONE',  #4 ) ;
#111 = CIRCLE ( 'NONE', #234, 2.600000000000003642 ) ;
#112 = DIRECTION ( 'NONE',  ( -3.491481338843133355E-15, 1.224646799147353207E-16, -1.000000000000000000 ) ) ;
#113 = EDGE_CURVE ( 'NONE', #87, #87, #199, .T. ) ;
#114 = CARTESIAN_POINT ( 'NONE',  ( 6.982962677686266711E-14, -8.654349589573485764E-15, 20.00000000000000000 ) ) ;
#115 = ORGANIZATION ( 'UNSPECIFIED', 'UNSPECIFIED', '' ) ;
#116 = PERSON_AND_ORGANIZATION ( #230, #115 ) ;
#117 = ADVANCED_FACE ( 'NONE', ( #204 ), #132, .T. ) ;
#118 = VERTEX_POINT ( 'NONE', #214 ) ;
#119 = CIRCLE ( 'NONE', #121, 3.000000000000000444 ) ;
#120 = CYLINDRICAL_SURFACE ( 'NONE', #135, 2.999999999999998224 ) ;
#121 = AXIS2_PLACEMENT_3D ( 'NONE', #160, #206, #69 ) ;
#122 = CARTESIAN_POINT ( 'NONE',  ( 3.812385842504470444E-15, -1.337204947137066162E-16, 1.091910702798619459 ) ) ;
#123 = FACE_OUTER_BOUND ( 'NONE', #201, .T. ) ;
#124 = ORIENTED_EDGE ( 'NONE', *, *, #250, .F. ) ;
#125 = FACE_OUTER_BOUND ( 'NONE', #83, .T. ) ;
#126 = CC_DESIGN_SECURITY_CLASSIFICATION ( #98, ( #171 ) ) ;
#127 = CARTESIAN_POINT ( 'NONE',  ( 9.601573681818617358E-14, 2.733974596215557717, 27.50000000000000000 ) ) ;
#128 = MANIFOLD_SOLID_BREP ( 'Corps-Déplacer/Copier1[2]', #19 ) ;
#129 = DIRECTION ( 'NONE',  ( 1.510825004591027855E-30, 1.000000000000000000, 4.327174794786743375E-16 ) ) ;
#130 = CONICAL_SURFACE ( 'NONE', #222, 3.500000000000011102, 0.5235987755983009251 ) ;
#131 = EDGE_CURVE ( 'NONE', #67, #67, #49, .T. ) ;
#132 = PLANE ( 'NONE',  #65 ) ;
#133 = DIRECTION ( 'NONE',  ( 0.0000000000000000000, -1.000000000000000000, 0.0000000000000000000 ) ) ;
#134 = PERSON_AND_ORGANIZATION ( #230, #115 ) ;
#135 = AXIS2_PLACEMENT_3D ( 'NONE', #198, #18, #12 ) ;
#136 = CARTESIAN_POINT ( 'NONE',  ( 2.279937314264566018E-13, 2.999999999999992895, 65.29999999999999716 ) ) ;
#137 = APPROVAL_STATUS ( 'not_yet_approved' ) ;
#138 = CC_DESIGN_PERSON_AND_ORGANIZATION_ASSIGNMENT ( #134, #30, ( #171 ) ) ;
#139 = AXIS2_PLACEMENT_3D ( 'NONE', #175, #255, #200 ) ;
#140 = CALENDAR_DATE ( 2021, 13, 10 ) ;
#141 = EDGE_LOOP ( 'NONE', ( #42 ) ) ;
#142 = ORIENTED_EDGE ( 'NONE', *, *, #172, .F. ) ;
#143 = LOCAL_TIME ( 13, 36, 6.000000000000000000, #11 ) ;
#144 = DIRECTION ( 'NONE',  ( 0.0000000000000000000, 1.000000000000000000, 0.0000000000000000000 ) ) ;
#145 = CARTESIAN_POINT ( 'NONE',  ( 3.304067730170552595E-15, -1.158910954185461236E-16, 0.9463226090921400546 ) ) ;
#146 = CARTESIAN_POINT ( 'NONE',  ( 9.601573681818617358E-14, -1.189973068566354293E-14, 27.50000000000000000 ) ) ;
#147 = DIRECTION ( 'NONE',  ( -3.491481338843133355E-15, 4.327174794786742882E-16, -1.000000000000000000 ) ) ;
#148 = CIRCLE ( 'NONE', #88, 2.600000000000007638 ) ;
#149 = CARTESIAN_POINT ( 'NONE',  ( 9.426999614876460059E-14, -1.168337194592420578E-14, 27.00000000000000000 ) ) ;
#150 = CARTESIAN_POINT ( 'NONE',  ( 0.0000000000000000000, 0.0000000000000000000, 0.0000000000000000000 ) ) ;
#151 = DIRECTION ( 'NONE',  ( 1.000000000000000000, 0.0000000000000000000, 0.0000000000000000000 ) ) ;
#152 = EDGE_CURVE ( 'NONE', #76, #76, #148, .T. ) ;
#153 = TOROIDAL_SURFACE ( 'NONE', #29, 3.600000000000008082, 1.000000000000000222 ) ;
#154 = ADVANCED_FACE ( 'NONE', ( #226, #207 ), #48, .T. ) ;
#155 = CARTESIAN_POINT ( 'NONE',  ( 2.304377683636468267E-13, 1.724723750061124754E-32, 66.00000000000000000 ) ) ;
#156 = FACE_OUTER_BOUND ( 'NONE', #216, .T. ) ;
#157 = EDGE_LOOP ( 'NONE', ( #104 ) ) ;
#158 = DATE_AND_TIME ( #251, #9 ) ;
#159 = ORIENTED_EDGE ( 'NONE', *, *, #172, .T. ) ;
#160 = CARTESIAN_POINT ( 'NONE',  ( 2.279937314264566018E-13, -7.996943598432214956E-15, 65.29999999999999716 ) ) ;
#161 = AXIS2_PLACEMENT_3D ( 'NONE', #16, #224, #3 ) ;
#162 = CARTESIAN_POINT ( 'NONE',  ( 6.982962677686266711E-14, -2.600000000000012523, 20.00000000000000000 ) ) ;
#163 = CC_DESIGN_PERSON_AND_ORGANIZATION_ASSIGNMENT ( #6, #96, ( #98 ) ) ;
#164 = FACE_BOUND ( 'NONE', #219, .T. ) ;
#165 = DIRECTION ( 'NONE',  ( -3.491481338843133355E-15, 1.224646799147353207E-16, -1.000000000000000000 ) ) ;
#166 = FACE_OUTER_BOUND ( 'NONE', #141, .T. ) ;
#167 = AXIS2_PLACEMENT_3D ( 'NONE', #243, #45, #50 ) ;
#168 = PERSON_AND_ORGANIZATION_ROLE ( 'creator' ) ;
#169 = COORDINATED_UNIVERSAL_TIME_OFFSET ( 1, 0, .AHEAD. ) ;
#170 = MECHANICAL_CONTEXT ( 'NONE', #197, 'mechanical' ) ;
#171 = PRODUCT_DEFINITION_FORMATION_WITH_SPECIFIED_SOURCE ( 'ANY', '', #97, .NOT_KNOWN. ) ;
#172 = EDGE_CURVE ( 'NONE', #118, #118, #57, .T. ) ;
#173 = PERSON_AND_ORGANIZATION_ROLE ( 'creator' ) ;
#174 = DATE_AND_TIME ( #73, #24 ) ;
#175 = CARTESIAN_POINT ( 'NONE',  ( 0.0000000000000000000, 0.0000000000000000000, 0.0000000000000000000 ) ) ;
#176 = EDGE_CURVE ( 'NONE', #229, #229, #119, .T. ) ;
#177 = AXIS2_PLACEMENT_3D ( 'NONE', #122, #105, #215 ) ;
#178 = ORIENTED_EDGE ( 'NONE', *, *, #113, .F. ) ;
#179 = ORIENTED_EDGE ( 'NONE', *, *, #131, .T. ) ;
#180 = LOCAL_TIME ( 13, 36, 6.000000000000000000, #8 ) ;
#181 = PERSON_AND_ORGANIZATION ( #230, #115 ) ;
#182 = ADVANCED_FACE ( 'NONE', ( #25 ), #110, .F. ) ;
#183 = EDGE_LOOP ( 'NONE', ( #178 ) ) ;
#184 = CARTESIAN_POINT ( 'NONE',  ( 9.762450498291786211E-14, -3.000000000000010658, 27.96076951545865441 ) ) ;
#185 = CARTESIAN_POINT ( 'NONE',  ( 6.982962677686266711E-14, 2.249639673992779843E-32, 20.00000000000000000 ) ) ;
#186 = AXIS2_PLACEMENT_3D ( 'NONE', #114, #47, #190 ) ;
#187 = DIRECTION ( 'NONE',  ( 0.0000000000000000000, 1.000000000000000000, 0.0000000000000000000 ) ) ;
#188 = LOCAL_TIME ( 13, 36, 6.000000000000000000, #63 ) ;
#189 = DIRECTION ( 'NONE',  ( -3.491481338843133355E-15, 4.327174794786742882E-16, -1.000000000000000000 ) ) ;
#190 = DIRECTION ( 'NONE',  ( 0.0000000000000000000, -1.000000000000000000, 0.0000000000000000000 ) ) ;
#191 =( NAMED_UNIT ( * ) SI_UNIT ( $, .STERADIAN. ) SOLID_ANGLE_UNIT ( ) );
#192 = CONICAL_SURFACE ( 'NONE', #252, 2.300000000000000711, 0.7853981633974437271 ) ;
#193 = SECURITY_CLASSIFICATION_LEVEL ( 'unclassified' ) ;
#194 = CC_DESIGN_PERSON_AND_ORGANIZATION_ASSIGNMENT ( #249, #168, ( #62 ) ) ;
#195 = CARTESIAN_POINT ( 'NONE',  ( 6.982962677686266711E-14, -2.600000000000012523, 20.00000000000000000 ) ) ;
#196 = DIRECTION ( 'NONE',  ( 0.0000000000000000000, 0.0000000000000000000, 1.000000000000000000 ) ) ;
#197 = APPLICATION_CONTEXT ( 'configuration controlled 3d designs of mechanical parts and assemblies' ) ;
#198 = CARTESIAN_POINT ( 'NONE',  ( 0.0000000000000000000, 0.0000000000000000000, 0.0000000000000000000 ) ) ;
#199 = CIRCLE ( 'NONE', #167, 2.600000000000003642 ) ;
#200 = DIRECTION ( 'NONE',  ( 1.510825004591027855E-30, 1.000000000000000000, 4.327174794786743375E-16 ) ) ;
#201 = EDGE_LOOP ( 'NONE', ( #61 ) ) ;
#202 = CYLINDRICAL_SURFACE ( 'NONE', #139, 2.600000000000003642 ) ;
#203 = CARTESIAN_POINT ( 'NONE',  ( 1.006482165191953791E-13, -1.247385803890353450E-14, 28.82679491924311321 ) ) ;
#204 = FACE_OUTER_BOUND ( 'NONE', #183, .T. ) ;
#205 = APPROVAL_PERSON_ORGANIZATION ( #72, #10, #77 ) ;
#206 = DIRECTION ( 'NONE',  ( -3.491481338843133355E-15, 1.224646799147353207E-16, -1.000000000000000000 ) ) ;
#207 = FACE_OUTER_BOUND ( 'NONE', #240, .T. ) ;
#208 = CARTESIAN_POINT ( 'NONE',  ( 2.304377683636468267E-13, -8.082668874372532400E-15, 66.00000000000000000 ) ) ;
#209 = PERSON_AND_ORGANIZATION ( #230, #115 ) ;
#210 = AXIS2_PLACEMENT_3D ( 'NONE', #208, #165, #187 ) ;
#211 = VERTEX_POINT ( 'NONE', #195 ) ;
#212 = APPROVAL ( #137, 'UNSPECIFIED' ) ;
#213 = APPROVAL_ROLE ( '' ) ;
#214 = CARTESIAN_POINT ( 'NONE',  ( 2.304377683636468267E-13, 2.299999999999992717, 66.00000000000000000 ) ) ;
#215 = DIRECTION ( 'NONE',  ( -5.135813185032639159E-31, -1.000000000000000000, -1.445602896647342121E-16 ) ) ;
#216 = EDGE_LOOP ( 'NONE', ( #60 ) ) ;
#217 = AXIS2_PLACEMENT_3D ( 'NONE', #150, #196, #151 ) ;
#218 = EDGE_LOOP ( 'NONE', ( #159 ) ) ;
#219 = EDGE_LOOP ( 'NONE', ( #260 ) ) ;
#220 = MANIFOLD_SOLID_BREP ( 'Corps-Déplacer/Copier1[1]', #244 ) ;
#221 = EDGE_LOOP ( 'NONE', ( #179 ) ) ;
#222 = AXIS2_PLACEMENT_3D ( 'NONE', #203, #51, #133 ) ;
#223 = VERTEX_POINT ( 'NONE', #262 ) ;
#224 = DIRECTION ( 'NONE',  ( 3.491481338843133355E-15, -4.327174794786742882E-16, 1.000000000000000000 ) ) ;
#225 = FACE_OUTER_BOUND ( 'NONE', #235, .T. ) ;
#226 = FACE_OUTER_BOUND ( 'NONE', #107, .T. ) ;
#227 = CC_DESIGN_PERSON_AND_ORGANIZATION_ASSIGNMENT ( #209, #173, ( #171 ) ) ;
#228 = DIRECTION ( 'NONE',  ( -3.491481338843133355E-15, 4.327174794786742882E-16, -1.000000000000000000 ) ) ;
#229 = VERTEX_POINT ( 'NONE', #136 ) ;
#230 = PERSON ( 'UNSPECIFIED', 'UNSPECIFIED', 'UNSPECIFIED', ('UNSPECIFIED'), ('UNSPECIFIED'), ('UNSPECIFIED') ) ;
#231 = AXIS2_PLACEMENT_3D ( 'NONE', #22, #26, #129 ) ;
#232 = APPLICATION_CONTEXT ( 'configuration controlled 3d designs of mechanical parts and assemblies' ) ;
#233 = PERSON_AND_ORGANIZATION_ROLE ( 'design_owner' ) ;
#234 = AXIS2_PLACEMENT_3D ( 'NONE', #145, #112, #70 ) ;
#235 = EDGE_LOOP ( 'NONE', ( #59 ) ) ;
#236 = APPROVAL_ROLE ( '' ) ;
#237 = DIRECTION ( 'NONE',  ( -3.491481338843133355E-15, 1.224646799147353207E-16, -1.000000000000000000 ) ) ;
#238 = EDGE_LOOP ( 'NONE', ( #21 ) ) ;
#239 = CC_DESIGN_APPROVAL ( #212, ( #62 ) ) ;
#240 = EDGE_LOOP ( 'NONE', ( #103 ) ) ;
#241 = ORIENTED_EDGE ( 'NONE', *, *, #152, .F. ) ;
#242 = CC_DESIGN_DATE_AND_TIME_ASSIGNMENT ( #174, #32, ( #62 ) ) ;
#243 = CARTESIAN_POINT ( 'NONE',  ( 6.982962677686266711E-14, -8.654349589573485764E-15, 20.00000000000000000 ) ) ;
#244 = CLOSED_SHELL ( 'NONE', ( #36, #86, #46, #1, #258, #254, #182 ) ) ;
#245 = DIRECTION ( 'NONE',  ( 0.0000000000000000000, 1.000000000000000000, 0.0000000000000000000 ) ) ;
#246 = FACE_BOUND ( 'NONE', #218, .T. ) ;
#247 = CARTESIAN_POINT ( 'NONE',  ( 2.304377683636468267E-13, -8.082668874372532400E-15, 66.00000000000000000 ) ) ;
#248 = CARTESIAN_POINT ( 'NONE',  ( 9.426999614876460059E-14, -1.170938346284344789E-14, 27.00000000000000000 ) ) ;
#249 = PERSON_AND_ORGANIZATION ( #230, #115 ) ;
#250 = EDGE_CURVE ( 'NONE', #211, #211, #40, .T. ) ;
#251 = CALENDAR_DATE ( 2021, 13, 10 ) ;
#252 = AXIS2_PLACEMENT_3D ( 'NONE', #247, #68, #109 ) ;
#253 = APPROVAL_STATUS ( 'not_yet_approved' ) ;
#254 = ADVANCED_FACE ( 'NONE', ( #89, #93 ), #153, .F. ) ;
#255 = DIRECTION ( 'NONE',  ( -3.491481338843133355E-15, 4.327174794786742882E-16, -1.000000000000000000 ) ) ;
#256 = SHAPE_DEFINITION_REPRESENTATION ( #7, #90 ) ;
#257 = FACE_OUTER_BOUND ( 'NONE', #64, .T. ) ;
#258 = ADVANCED_FACE ( 'NONE', ( #164, #166 ), #130, .T. ) ;
#259 = ORIENTED_EDGE ( 'NONE', *, *, #250, .T. ) ;
#260 = ORIENTED_EDGE ( 'NONE', *, *, #131, .F. ) ;
#261 = DIRECTION ( 'NONE',  ( 1.557008125292348505E-30, 1.000000000000000000, 4.327174794786742882E-16 ) ) ;
#262 = CARTESIAN_POINT ( 'NONE',  ( 3.304067730170551412E-15, -2.600000000000003642, 0.9463226090921397216 ) ) ;
#263 = DIRECTION ( 'NONE',  ( 3.491481338843133355E-15, -1.224646799147353207E-16, 1.000000000000000000 ) ) ;
ENDSEC;
END-ISO-10303-21;
