ISO-10303-21;
HEADER;
FILE_DESCRIPTION (( 'STEP AP203' ),
    '1' );
FILE_NAME ('43329.step',
    '2021-10-13T11:36:05',
    ( '' ),
    ( '' ),
    'SwSTEP 2.0',
    'SolidWorks 2019',
    '' );
FILE_SCHEMA (( 'CONFIG_CONTROL_DESIGN' ));
ENDSEC;

DATA;
#1 = CARTESIAN_POINT ( 'NONE',  ( 9.426999614876460059E-14, -1.168337194592420578E-14, 27.00000000000000000 ) ) ;
#2 = SHAPE_DEFINITION_REPRESENTATION ( #228, #89 ) ;
#3 = PRODUCT_DEFINITION_FORMATION_WITH_SPECIFIED_SOURCE ( 'ANY', '', #174, .NOT_KNOWN. ) ;
#4 = EDGE_LOOP ( 'NONE', ( #69 ) ) ;
#5 = APPROVAL_DATE_TIME ( #49, #191 ) ;
#6 = ORIENTED_EDGE ( 'NONE', *, *, #177, .F. ) ;
#7 = EDGE_LOOP ( 'NONE', ( #151 ) ) ;
#8 = DIRECTION ( 'NONE',  ( -3.491481338843133355E-15, 4.327174794786742882E-16, -1.000000000000000000 ) ) ;
#9 = CC_DESIGN_PERSON_AND_ORGANIZATION_ASSIGNMENT ( #58, #180, ( #215 ) ) ;
#10 = VERTEX_POINT ( 'NONE', #159 ) ;
#11 = CARTESIAN_POINT ( 'NONE',  ( 3.812385842504470444E-15, -1.337204947137066162E-16, 1.091910702798619459 ) ) ;
#12 = CYLINDRICAL_SURFACE ( 'NONE', #23, 2.999999999999998224 ) ;
#13 = FACE_OUTER_BOUND ( 'NONE', #67, .T. ) ;
#14 = AXIS2_PLACEMENT_3D ( 'NONE', #76, #195, #31 ) ;
#15 = VERTEX_POINT ( 'NONE', #40 ) ;
#16 = PRODUCT_RELATED_PRODUCT_CATEGORY ( 'detail', '', ( #174 ) ) ;
#17 = APPROVAL_ROLE ( '' ) ;
#18 = DATE_TIME_ROLE ( 'creation_date' ) ;
#19 = AXIS2_PLACEMENT_3D ( 'NONE', #134, #198, #218 ) ;
#20 = CALENDAR_DATE ( 2021, 13, 10 ) ;
#21 = EDGE_LOOP ( 'NONE', ( #22 ) ) ;
#22 = ORIENTED_EDGE ( 'NONE', *, *, #46, .T. ) ;
#23 = AXIS2_PLACEMENT_3D ( 'NONE', #54, #136, #57 ) ;
#24 = CALENDAR_DATE ( 2021, 13, 10 ) ;
#25 = ADVANCED_FACE ( 'NONE', ( #90 ), #226, .F. ) ;
#26 = DIRECTION ( 'NONE',  ( 3.491481338843133355E-15, -1.224646799147353207E-16, 1.000000000000000000 ) ) ;
#27 = CARTESIAN_POINT ( 'NONE',  ( 9.426999614876460059E-14, -1.170938346284344789E-14, 27.00000000000000000 ) ) ;
#28 = CYLINDRICAL_SURFACE ( 'NONE', #241, 2.500000000000004441 ) ;
#29 = CARTESIAN_POINT ( 'NONE',  ( 9.426999614876460059E-14, 2.499999999999996891, 27.00000000000000000 ) ) ;
#30 = CARTESIAN_POINT ( 'NONE',  ( 6.982962677686266711E-14, -8.654349589573485764E-15, 20.00000000000000000 ) ) ;
#31 = DIRECTION ( 'NONE',  ( 1.510825004591027855E-30, 1.000000000000000000, 4.327174794786742882E-16 ) ) ;
#32 = ADVANCED_FACE ( 'NONE', ( #132 ), #112, .T. ) ;
#33 = DIRECTION ( 'NONE',  ( -3.491481338843133355E-15, 1.224646799147353207E-16, -1.000000000000000000 ) ) ;
#34 = ORGANIZATION ( 'UNSPECIFIED', 'UNSPECIFIED', '' ) ;
#35 = LOCAL_TIME ( 13, 36, 5.000000000000000000, #256 ) ;
#36 = COORDINATED_UNIVERSAL_TIME_OFFSET ( 1, 0, .AHEAD. ) ;
#37 =( GEOMETRIC_REPRESENTATION_CONTEXT ( 3 ) GLOBAL_UNCERTAINTY_ASSIGNED_CONTEXT ( ( #187 ) ) GLOBAL_UNIT_ASSIGNED_CONTEXT ( ( #204, #203, #220 ) ) REPRESENTATION_CONTEXT ( 'NONE', 'WORKASPACE' ) );
#38 = CARTESIAN_POINT ( 'NONE',  ( 6.982962677686266711E-14, -2.500000000000012879, 20.00000000000000000 ) ) ;
#39 = LOCAL_TIME ( 13, 36, 5.000000000000000000, #36 ) ;
#40 = CARTESIAN_POINT ( 'NONE',  ( 6.982962677686266711E-14, -2.500000000000012879, 20.00000000000000000 ) ) ;
#41 = PERSON ( 'UNSPECIFIED', 'UNSPECIFIED', 'UNSPECIFIED', ('UNSPECIFIED'), ('UNSPECIFIED'), ('UNSPECIFIED') ) ;
#42 = PERSON_AND_ORGANIZATION ( #41, #34 ) ;
#43 = COORDINATED_UNIVERSAL_TIME_OFFSET ( 1, 0, .AHEAD. ) ;
#44 = ORIENTED_EDGE ( 'NONE', *, *, #177, .T. ) ;
#45 = ORIENTED_EDGE ( 'NONE', *, *, #81, .F. ) ;
#46 = EDGE_CURVE ( 'NONE', #138, #138, #243, .T. ) ;
#47 = EDGE_LOOP ( 'NONE', ( #154 ) ) ;
#48 = TOROIDAL_SURFACE ( 'NONE', #261, 3.500000000000008882, 0.9999999999999995559 ) ;
#49 = DATE_AND_TIME ( #83, #145 ) ;
#50 = DIRECTION ( 'NONE',  ( -4.275831445896958607E-31, -1.000000000000000000, -1.224646799147353207E-16 ) ) ;
#51 = DIRECTION ( 'NONE',  ( 0.0000000000000000000, 1.000000000000000000, 0.0000000000000000000 ) ) ;
#52 = AXIS2_PLACEMENT_3D ( 'NONE', #30, #114, #160 ) ;
#53 = PLANE ( 'NONE',  #163 ) ;
#54 = CARTESIAN_POINT ( 'NONE',  ( 0.0000000000000000000, 0.0000000000000000000, 0.0000000000000000000 ) ) ;
#55 = APPROVAL ( #164, 'UNSPECIFIED' ) ;
#56 = CONICAL_SURFACE ( 'NONE', #201, 2.999999999999993783, 1.221730476396026388 ) ;
#57 = DIRECTION ( 'NONE',  ( 4.275831445896958607E-31, 1.000000000000000000, 1.224646799147353454E-16 ) ) ;
#58 = PERSON_AND_ORGANIZATION ( #41, #34 ) ;
#59 = PERSON_AND_ORGANIZATION ( #41, #34 ) ;
#60 = CC_DESIGN_PERSON_AND_ORGANIZATION_ASSIGNMENT ( #103, #205, ( #3 ) ) ;
#61 = CONICAL_SURFACE ( 'NONE', #102, 3.500000000000011102, 0.5235987755983000369 ) ;
#62 = DIRECTION ( 'NONE',  ( 1.558034416863489108E-30, 1.000000000000000000, 4.327174794786742882E-16 ) ) ;
#63 = ADVANCED_FACE ( 'NONE', ( #85, #230 ), #48, .F. ) ;
#64 = CC_DESIGN_APPROVAL ( #55, ( #3 ) ) ;
#65 = COORDINATED_UNIVERSAL_TIME_OFFSET ( 1, 0, .AHEAD. ) ;
#66 = ORIENTED_EDGE ( 'NONE', *, *, #196, .T. ) ;
#67 = EDGE_LOOP ( 'NONE', ( #6 ) ) ;
#68 = AXIS2_PLACEMENT_3D ( 'NONE', #211, #26, #207 ) ;
#69 = ORIENTED_EDGE ( 'NONE', *, *, #46, .F. ) ;
#70 = CC_DESIGN_PERSON_AND_ORGANIZATION_ASSIGNMENT ( #240, #77, ( #174 ) ) ;
#71 = CARTESIAN_POINT ( 'NONE',  ( 9.601573681818617358E-14, 2.633974596215559405, 27.50000000000000000 ) ) ;
#72 = CLOSED_SHELL ( 'NONE', ( #133, #242, #181, #100, #124, #63, #25 ) ) ;
#73 = FACE_OUTER_BOUND ( 'NONE', #262, .T. ) ;
#74 = EDGE_CURVE ( 'NONE', #158, #158, #217, .T. ) ;
#75 = DIRECTION ( 'NONE',  ( 0.0000000000000000000, 1.000000000000000000, 0.0000000000000000000 ) ) ;
#76 = CARTESIAN_POINT ( 'NONE',  ( 0.0000000000000000000, 0.0000000000000000000, 0.0000000000000000000 ) ) ;
#77 = PERSON_AND_ORGANIZATION_ROLE ( 'design_owner' ) ;
#78 = APPROVAL_STATUS ( 'not_yet_approved' ) ;
#79 = CLOSED_SHELL ( 'NONE', ( #239, #244, #32 ) ) ;
#80 = DATE_AND_TIME ( #260, #258 ) ;
#81 = EDGE_CURVE ( 'NONE', #10, #10, #92, .T. ) ;
#82 = SECURITY_CLASSIFICATION_LEVEL ( 'unclassified' ) ;
#83 = CALENDAR_DATE ( 2021, 13, 10 ) ;
#84 = AXIS2_PLACEMENT_3D ( 'NONE', #137, #238, #119 ) ;
#85 = FACE_OUTER_BOUND ( 'NONE', #91, .T. ) ;
#86 = CC_DESIGN_PERSON_AND_ORGANIZATION_ASSIGNMENT ( #59, #222, ( #3 ) ) ;
#87 = APPROVAL_PERSON_ORGANIZATION ( #246, #191, #208 ) ;
#88 = DIRECTION ( 'NONE',  ( -3.491481338843133355E-15, 4.327174794786742882E-16, -1.000000000000000000 ) ) ;
#89 = ADVANCED_BREP_SHAPE_REPRESENTATION ( '43329', ( #128, #212, #179 ), #37 ) ;
#90 = FACE_OUTER_BOUND ( 'NONE', #188, .T. ) ;
#91 = EDGE_LOOP ( 'NONE', ( #189 ) ) ;
#92 = CIRCLE ( 'NONE', #84, 2.999999999999998224 ) ;
#93 = ORIENTED_EDGE ( 'NONE', *, *, #96, .F. ) ;
#94 = DIRECTION ( 'NONE',  ( -5.135813185032639159E-31, -1.000000000000000000, -1.445602896647342121E-16 ) ) ;
#95 = DIRECTION ( 'NONE',  ( -4.622231866529358165E-31, -1.000000000000000000, -1.301042606982603102E-16 ) ) ;
#96 = EDGE_CURVE ( 'NONE', #223, #223, #237, .T. ) ;
#97 = FACE_BOUND ( 'NONE', #113, .T. ) ;
#98 = CC_DESIGN_APPROVAL ( #135, ( #153 ) ) ;
#99 = FACE_BOUND ( 'NONE', #4, .T. ) ;
#100 = ADVANCED_FACE ( 'NONE', ( #253, #13 ), #194, .T. ) ;
#101 = DIRECTION ( 'NONE',  ( 3.491481338843133355E-15, -4.327174794786742882E-16, 1.000000000000000000 ) ) ;
#102 = AXIS2_PLACEMENT_3D ( 'NONE', #213, #101, #178 ) ;
#103 = PERSON_AND_ORGANIZATION ( #41, #34 ) ;
#104 = COORDINATED_UNIVERSAL_TIME_OFFSET ( 1, 0, .AHEAD. ) ;
#105 = CC_DESIGN_DATE_AND_TIME_ASSIGNMENT ( #186, #18, ( #153 ) ) ;
#106 = CIRCLE ( 'NONE', #139, 2.500000000000004441 ) ;
#107 = DATE_AND_TIME ( #20, #35 ) ;
#108 = DIRECTION ( 'NONE',  ( 0.0000000000000000000, 1.000000000000000000, 0.0000000000000000000 ) ) ;
#109 = AXIS2_PLACEMENT_3D ( 'NONE', #110, #88, #108 ) ;
#110 = CARTESIAN_POINT ( 'NONE',  ( 9.601573681818617358E-14, -1.189973068566354293E-14, 27.50000000000000000 ) ) ;
#111 = ORIENTED_EDGE ( 'NONE', *, *, #248, .T. ) ;
#112 = PLANE ( 'NONE',  #68 ) ;
#113 = EDGE_LOOP ( 'NONE', ( #111 ) ) ;
#114 = DIRECTION ( 'NONE',  ( -3.491481338843133355E-15, 1.224646799147353207E-16, -1.000000000000000000 ) ) ;
#115 = DIRECTION ( 'NONE',  ( -3.491481338843133355E-15, 1.224646799147353207E-16, -1.000000000000000000 ) ) ;
#116 = DIRECTION ( 'NONE',  ( 3.491481338843133355E-15, -1.224646799147353207E-16, 1.000000000000000000 ) ) ;
#117 = FACE_OUTER_BOUND ( 'NONE', #210, .T. ) ;
#118 = EDGE_CURVE ( 'NONE', #123, #123, #184, .T. ) ;
#119 = DIRECTION ( 'NONE',  ( 0.0000000000000000000, -1.000000000000000000, 0.0000000000000000000 ) ) ;
#120 = CARTESIAN_POINT ( 'NONE',  ( 3.176988202087069484E-15, -2.500000000000004441, 0.9099255856655192876 ) ) ;
#121 = AXIS2_PLACEMENT_3D ( 'NONE', #254, #115, #51 ) ;
#122 = APPLICATION_PROTOCOL_DEFINITION ( 'international standard', 'config_control_design', 1994, #143 ) ;
#123 = VERTEX_POINT ( 'NONE', #120 ) ;
#124 = ADVANCED_FACE ( 'NONE', ( #99, #117 ), #61, .T. ) ;
#125 = CARTESIAN_POINT ( 'NONE',  ( 0.0000000000000000000, 0.0000000000000000000, 0.0000000000000000000 ) ) ;
#126 = VERTEX_POINT ( 'NONE', #38 ) ;
#127 = DIRECTION ( 'NONE',  ( 3.491481338843133355E-15, -1.224646799147353207E-16, 1.000000000000000000 ) ) ;
#128 = MANIFOLD_SOLID_BREP ( 'Corps-Déplacer/Copier1[1]', #72 ) ;
#129 = DATE_TIME_ROLE ( 'classification_date' ) ;
#130 = CONICAL_SURFACE ( 'NONE', #121, 2.300000000000000711, 0.7853981633974437271 ) ;
#131 = ORIENTED_EDGE ( 'NONE', *, *, #96, .T. ) ;
#132 = FACE_OUTER_BOUND ( 'NONE', #172, .T. ) ;
#133 = ADVANCED_FACE ( 'NONE', ( #233, #250 ), #12, .T. ) ;
#134 = CARTESIAN_POINT ( 'NONE',  ( 2.279937314264566018E-13, -7.996943598432214956E-15, 65.29999999999999716 ) ) ;
#135 = APPROVAL ( #78, 'UNSPECIFIED' ) ;
#136 = DIRECTION ( 'NONE',  ( -3.491481338843133355E-15, 1.224646799147353207E-16, -1.000000000000000000 ) ) ;
#137 = CARTESIAN_POINT ( 'NONE',  ( 9.822924729017333773E-14, -1.217406257499144085E-14, 28.13397459621554120 ) ) ;
#138 = VERTEX_POINT ( 'NONE', #71 ) ;
#139 = AXIS2_PLACEMENT_3D ( 'NONE', #255, #235, #176 ) ;
#140 = CC_DESIGN_SECURITY_CLASSIFICATION ( #215, ( #3 ) ) ;
#141 = CARTESIAN_POINT ( 'NONE',  ( 2.304377683636468267E-13, 1.724723750061124754E-32, 66.00000000000000000 ) ) ;
#142 = CARTESIAN_POINT ( 'NONE',  ( 2.279937314264566018E-13, 2.999999999999992895, 65.29999999999999716 ) ) ;
#143 = APPLICATION_CONTEXT ( 'configuration controlled 3d designs of mechanical parts and assemblies' ) ;
#144 = DIRECTION ( 'NONE',  ( 0.0000000000000000000, 0.0000000000000000000, 1.000000000000000000 ) ) ;
#145 = LOCAL_TIME ( 13, 36, 5.000000000000000000, #65 ) ;
#146 = CALENDAR_DATE ( 2021, 13, 10 ) ;
#147 = DIRECTION ( 'NONE',  ( 1.000000000000000000, 0.0000000000000000000, 0.0000000000000000000 ) ) ;
#148 = DATE_AND_TIME ( #24, #150 ) ;
#149 = EDGE_LOOP ( 'NONE', ( #171 ) ) ;
#150 = LOCAL_TIME ( 13, 36, 5.000000000000000000, #43 ) ;
#151 = ORIENTED_EDGE ( 'NONE', *, *, #74, .T. ) ;
#152 = EDGE_LOOP ( 'NONE', ( #131 ) ) ;
#153 = PRODUCT_DEFINITION ( 'UNKNOWN', '', #3, #202 ) ;
#154 = ORIENTED_EDGE ( 'NONE', *, *, #118, .T. ) ;
#155 = EDGE_LOOP ( 'NONE', ( #93 ) ) ;
#156 = FACE_OUTER_BOUND ( 'NONE', #224, .T. ) ;
#157 = AXIS2_PLACEMENT_3D ( 'NONE', #251, #175, #75 ) ;
#158 = VERTEX_POINT ( 'NONE', #29 ) ;
#159 = CARTESIAN_POINT ( 'NONE',  ( 9.822924729017333773E-14, -3.000000000000010658, 28.13397459621554120 ) ) ;
#160 = DIRECTION ( 'NONE',  ( 0.0000000000000000000, -1.000000000000000000, 0.0000000000000000000 ) ) ;
#161 = PERSON_AND_ORGANIZATION_ROLE ( 'creator' ) ;
#162 = APPROVAL_DATE_TIME ( #80, #135 ) ;
#163 = AXIS2_PLACEMENT_3D ( 'NONE', #141, #231, #216 ) ;
#164 = APPROVAL_STATUS ( 'not_yet_approved' ) ;
#165 = MECHANICAL_CONTEXT ( 'NONE', #143, 'mechanical' ) ;
#166 = CIRCLE ( 'NONE', #52, 2.500000000000004441 ) ;
#167 = CC_DESIGN_APPROVAL ( #191, ( #215 ) ) ;
#168 = APPROVAL_STATUS ( 'not_yet_approved' ) ;
#169 = DIRECTION ( 'NONE',  ( -3.491481338843133355E-15, 4.327174794786742882E-16, -1.000000000000000000 ) ) ;
#170 = DIRECTION ( 'NONE',  ( 0.0000000000000000000, 1.000000000000000000, 0.0000000000000000000 ) ) ;
#171 = ORIENTED_EDGE ( 'NONE', *, *, #81, .T. ) ;
#172 = EDGE_LOOP ( 'NONE', ( #229 ) ) ;
#173 = DIRECTION ( 'NONE',  ( 1.510825004591027855E-30, 1.000000000000000000, 4.327174794786742882E-16 ) ) ;
#174 = PRODUCT ( '43329', '43329', '', ( #165 ) ) ;
#175 = DIRECTION ( 'NONE',  ( -3.491481338843133355E-15, 1.224646799147353207E-16, -1.000000000000000000 ) ) ;
#176 = DIRECTION ( 'NONE',  ( 0.0000000000000000000, -1.000000000000000000, 0.0000000000000000000 ) ) ;
#177 = EDGE_CURVE ( 'NONE', #15, #15, #106, .T. ) ;
#178 = DIRECTION ( 'NONE',  ( 0.0000000000000000000, -1.000000000000000000, 0.0000000000000000000 ) ) ;
#179 = AXIS2_PLACEMENT_3D ( 'NONE', #125, #144, #147 ) ;
#180 = PERSON_AND_ORGANIZATION_ROLE ( 'classification_officer' ) ;
#181 = ADVANCED_FACE ( 'NONE', ( #156 ), #53, .F. ) ;
#182 = VERTEX_POINT ( 'NONE', #259 ) ;
#183 = PERSON_AND_ORGANIZATION ( #41, #34 ) ;
#184 = CIRCLE ( 'NONE', #247, 2.500000000000004441 ) ;
#185 = CC_DESIGN_DATE_AND_TIME_ASSIGNMENT ( #148, #129, ( #215 ) ) ;
#186 = DATE_AND_TIME ( #146, #39 ) ;
#187 = UNCERTAINTY_MEASURE_WITH_UNIT (LENGTH_MEASURE( 1.000000000000000082E-05 ), #204, 'distance_accuracy_value', 'NONE');
#188 = EDGE_LOOP ( 'NONE', ( #44 ) ) ;
#189 = ORIENTED_EDGE ( 'NONE', *, *, #74, .F. ) ;
#190 = ORIENTED_EDGE ( 'NONE', *, *, #118, .F. ) ;
#191 = APPROVAL ( #168, 'UNSPECIFIED' ) ;
#192 = CARTESIAN_POINT ( 'NONE',  ( 6.982962677686266711E-14, 2.249639673992779843E-32, 20.00000000000000000 ) ) ;
#193 = CARTESIAN_POINT ( 'NONE',  ( 0.0000000000000000000, 0.0000000000000000000, 0.0000000000000000000 ) ) ;
#194 = CYLINDRICAL_SURFACE ( 'NONE', #14, 2.500000000000004441 ) ;
#195 = DIRECTION ( 'NONE',  ( -3.491481338843133355E-15, 4.327174794786742882E-16, -1.000000000000000000 ) ) ;
#196 = EDGE_CURVE ( 'NONE', #126, #126, #166, .T. ) ;
#197 = FACE_OUTER_BOUND ( 'NONE', #47, .T. ) ;
#198 = DIRECTION ( 'NONE',  ( -3.491481338843133355E-15, 1.224646799147353207E-16, -1.000000000000000000 ) ) ;
#199 = CC_DESIGN_PERSON_AND_ORGANIZATION_ASSIGNMENT ( #42, #161, ( #153 ) ) ;
#200 = APPROVAL_DATE_TIME ( #107, #55 ) ;
#201 = AXIS2_PLACEMENT_3D ( 'NONE', #11, #116, #94 ) ;
#202 = DESIGN_CONTEXT ( 'detailed design', #236, 'design' ) ;
#203 =( NAMED_UNIT ( * ) PLANE_ANGLE_UNIT ( ) SI_UNIT ( $, .RADIAN. ) );
#204 =( LENGTH_UNIT ( ) NAMED_UNIT ( * ) SI_UNIT ( .MILLI., .METRE. ) );
#205 = PERSON_AND_ORGANIZATION_ROLE ( 'design_supplier' ) ;
#206 = PERSON_AND_ORGANIZATION ( #41, #34 ) ;
#207 = DIRECTION ( 'NONE',  ( -4.275831445896958607E-31, -1.000000000000000000, -1.224646799147353207E-16 ) ) ;
#208 = APPROVAL_ROLE ( '' ) ;
#209 = AXIS2_PLACEMENT_3D ( 'NONE', #192, #127, #50 ) ;
#210 = EDGE_LOOP ( 'NONE', ( #45 ) ) ;
#211 = CARTESIAN_POINT ( 'NONE',  ( 6.982962677686266711E-14, 2.249639673992779843E-32, 20.00000000000000000 ) ) ;
#212 = MANIFOLD_SOLID_BREP ( 'Corps-Déplacer/Copier1[2]', #79 ) ;
#213 = CARTESIAN_POINT ( 'NONE',  ( 1.012529588264508547E-13, -1.254880690488155278E-14, 28.99999999999999645 ) ) ;
#214 = FACE_OUTER_BOUND ( 'NONE', #249, .T. ) ;
#215 = SECURITY_CLASSIFICATION ( '', '', #82 ) ;
#216 = DIRECTION ( 'NONE',  ( 4.275831445896958607E-31, 1.000000000000000000, 1.224646799147353207E-16 ) ) ;
#217 = CIRCLE ( 'NONE', #252, 2.500000000000008882 ) ;
#218 = DIRECTION ( 'NONE',  ( 0.0000000000000000000, 1.000000000000000000, 0.0000000000000000000 ) ) ;
#219 = FACE_OUTER_BOUND ( 'NONE', #155, .T. ) ;
#220 =( NAMED_UNIT ( * ) SI_UNIT ( $, .STERADIAN. ) SOLID_ANGLE_UNIT ( ) );
#221 = APPLICATION_PROTOCOL_DEFINITION ( 'international standard', 'config_control_design', 1994, #236 ) ;
#222 = PERSON_AND_ORGANIZATION_ROLE ( 'creator' ) ;
#223 = VERTEX_POINT ( 'NONE', #142 ) ;
#224 = EDGE_LOOP ( 'NONE', ( #227 ) ) ;
#225 = APPROVAL_PERSON_ORGANIZATION ( #183, #135, #17 ) ;
#226 = PLANE ( 'NONE',  #209 ) ;
#227 = ORIENTED_EDGE ( 'NONE', *, *, #248, .F. ) ;
#228 = PRODUCT_DEFINITION_SHAPE ( 'NONE', 'NONE',  #153 ) ;
#229 = ORIENTED_EDGE ( 'NONE', *, *, #196, .F. ) ;
#230 = FACE_OUTER_BOUND ( 'NONE', #21, .T. ) ;
#231 = DIRECTION ( 'NONE',  ( -3.491481338843133355E-15, 1.224646799147353207E-16, -1.000000000000000000 ) ) ;
#232 = CARTESIAN_POINT ( 'NONE',  ( 3.176988202087070273E-15, -1.114337455947559203E-16, 0.9099255856655196206 ) ) ;
#233 = FACE_OUTER_BOUND ( 'NONE', #149, .T. ) ;
#234 = APPROVAL_PERSON_ORGANIZATION ( #206, #55, #257 ) ;
#235 = DIRECTION ( 'NONE',  ( -3.491481338843133355E-15, 1.224646799147353207E-16, -1.000000000000000000 ) ) ;
#236 = APPLICATION_CONTEXT ( 'configuration controlled 3d designs of mechanical parts and assemblies' ) ;
#237 = CIRCLE ( 'NONE', #19, 3.000000000000000444 ) ;
#238 = DIRECTION ( 'NONE',  ( 3.491481338843133355E-15, -4.327174794786742882E-16, 1.000000000000000000 ) ) ;
#239 = ADVANCED_FACE ( 'NONE', ( #197 ), #56, .T. ) ;
#240 = PERSON_AND_ORGANIZATION ( #41, #34 ) ;
#241 = AXIS2_PLACEMENT_3D ( 'NONE', #193, #8, #173 ) ;
#242 = ADVANCED_FACE ( 'NONE', ( #219, #97 ), #130, .T. ) ;
#243 = CIRCLE ( 'NONE', #109, 2.633974596215570951 ) ;
#244 = ADVANCED_FACE ( 'NONE', ( #214, #73 ), #28, .T. ) ;
#245 = DIRECTION ( 'NONE',  ( -3.491481338843133355E-15, 4.327174794786742882E-16, -1.000000000000000000 ) ) ;
#246 = PERSON_AND_ORGANIZATION ( #41, #34 ) ;
#247 = AXIS2_PLACEMENT_3D ( 'NONE', #232, #33, #95 ) ;
#248 = EDGE_CURVE ( 'NONE', #182, #182, #263, .T. ) ;
#249 = EDGE_LOOP ( 'NONE', ( #66 ) ) ;
#250 = FACE_OUTER_BOUND ( 'NONE', #152, .T. ) ;
#251 = CARTESIAN_POINT ( 'NONE',  ( 2.304377683636468267E-13, -8.082668874372532400E-15, 66.00000000000000000 ) ) ;
#252 = AXIS2_PLACEMENT_3D ( 'NONE', #1, #169, #170 ) ;
#253 = FACE_OUTER_BOUND ( 'NONE', #7, .T. ) ;
#254 = CARTESIAN_POINT ( 'NONE',  ( 2.304377683636468267E-13, -8.082668874372532400E-15, 66.00000000000000000 ) ) ;
#255 = CARTESIAN_POINT ( 'NONE',  ( 6.982962677686266711E-14, -8.654349589573485764E-15, 20.00000000000000000 ) ) ;
#256 = COORDINATED_UNIVERSAL_TIME_OFFSET ( 1, 0, .AHEAD. ) ;
#257 = APPROVAL_ROLE ( '' ) ;
#258 = LOCAL_TIME ( 13, 36, 5.000000000000000000, #104 ) ;
#259 = CARTESIAN_POINT ( 'NONE',  ( 2.304377683636468267E-13, 2.299999999999992717, 66.00000000000000000 ) ) ;
#260 = CALENDAR_DATE ( 2021, 13, 10 ) ;
#261 = AXIS2_PLACEMENT_3D ( 'NONE', #27, #245, #62 ) ;
#262 = EDGE_LOOP ( 'NONE', ( #190 ) ) ;
#263 = CIRCLE ( 'NONE', #157, 2.300000000000000711 ) ;
ENDSEC;
END-ISO-10303-21;
