ISO-10303-21;
HEADER;
FILE_DESCRIPTION (( 'STEP AP203' ),
    '1' );
FILE_NAME ('43328.step',
    '2021-10-13T11:36:05',
    ( '' ),
    ( '' ),
    'SwSTEP 2.0',
    'SolidWorks 2019',
    '' );
FILE_SCHEMA (( 'CONFIG_CONTROL_DESIGN' ));
ENDSEC;

DATA;
#1 = CALENDAR_DATE ( 2021, 13, 10 ) ;
#2 = FACE_OUTER_BOUND ( 'NONE', #169, .T. ) ;
#3 = PERSON ( 'UNSPECIFIED', 'UNSPECIFIED', 'UNSPECIFIED', ('UNSPECIFIED'), ('UNSPECIFIED'), ('UNSPECIFIED') ) ;
#4 = PERSON_AND_ORGANIZATION ( #3, #61 ) ;
#5 = APPROVAL_PERSON_ORGANIZATION ( #4, #107, #108 ) ;
#6 = ORIENTED_EDGE ( 'NONE', *, *, #186, .T. ) ;
#7 =( LENGTH_UNIT ( ) NAMED_UNIT ( * ) SI_UNIT ( .MILLI., .METRE. ) );
#8 = FACE_OUTER_BOUND ( 'NONE', #211, .T. ) ;
#9 = ORIENTED_EDGE ( 'NONE', *, *, #47, .F. ) ;
#10 = PRODUCT_DEFINITION_FORMATION_WITH_SPECIFIED_SOURCE ( 'ANY', '', #14, .NOT_KNOWN. ) ;
#11 = VERTEX_POINT ( 'NONE', #171 ) ;
#12 = CARTESIAN_POINT ( 'NONE',  ( 0.0000000000000000000, 0.0000000000000000000, 0.0000000000000000000 ) ) ;
#13 = DIRECTION ( 'NONE',  ( 1.558564859698011154E-30, 1.000000000000000000, 4.327174794786742882E-16 ) ) ;
#14 = PRODUCT ( '43328', '43328', '', ( #180 ) ) ;
#15 = APPROVAL ( #162, 'UNSPECIFIED' ) ;
#16 = CARTESIAN_POINT ( 'NONE',  ( 3.113448438045329310E-15, -1.092050706828608310E-16, 0.8917270739522092926 ) ) ;
#17 = FACE_BOUND ( 'NONE', #248, .T. ) ;
#18 = CC_DESIGN_DATE_AND_TIME_ASSIGNMENT ( #160, #87, ( #76 ) ) ;
#19 = PERSON_AND_ORGANIZATION_ROLE ( 'classification_officer' ) ;
#20 = AXIS2_PLACEMENT_3D ( 'NONE', #238, #136, #75 ) ;
#21 = DIRECTION ( 'NONE',  ( 0.0000000000000000000, 0.0000000000000000000, 1.000000000000000000 ) ) ;
#22 = APPROVAL_STATUS ( 'not_yet_approved' ) ;
#23 = DIRECTION ( 'NONE',  ( 3.491481338843133355E-15, -4.327174794786742882E-16, 1.000000000000000000 ) ) ;
#24 = CC_DESIGN_PERSON_AND_ORGANIZATION_ASSIGNMENT ( #90, #181, ( #76 ) ) ;
#25 = CARTESIAN_POINT ( 'NONE',  ( 2.304377683636468267E-13, -8.082668874372532400E-15, 66.00000000000000000 ) ) ;
#26 = CONICAL_SURFACE ( 'NONE', #81, 3.500000000000011102, 0.5235987755983009251 ) ;
#27 = FACE_OUTER_BOUND ( 'NONE', #229, .T. ) ;
#28 = DIRECTION ( 'NONE',  ( 3.491481338843133355E-15, -1.224646799147353207E-16, 1.000000000000000000 ) ) ;
#29 = EDGE_CURVE ( 'NONE', #11, #11, #129, .T. ) ;
#30 = MANIFOLD_SOLID_BREP ( 'Corps-Déplacer/Copier1[1]', #137 ) ;
#31 = DIRECTION ( 'NONE',  ( -4.275831445896958607E-31, -1.000000000000000000, -1.224646799147353207E-16 ) ) ;
#32 = MANIFOLD_SOLID_BREP ( 'Corps-Déplacer/Copier1[2]', #159 ) ;
#33 = FACE_OUTER_BOUND ( 'NONE', #71, .T. ) ;
#34 = APPROVAL_PERSON_ORGANIZATION ( #246, #182, #172 ) ;
#35 = DIRECTION ( 'NONE',  ( 0.0000000000000000000, 1.000000000000000000, 0.0000000000000000000 ) ) ;
#36 = CARTESIAN_POINT ( 'NONE',  ( 6.982962677686266711E-14, 2.249639673992779843E-32, 20.00000000000000000 ) ) ;
#37 = AXIS2_PLACEMENT_3D ( 'NONE', #150, #52, #152 ) ;
#38 = VERTEX_POINT ( 'NONE', #120 ) ;
#39 = SECURITY_CLASSIFICATION ( '', '', #221 ) ;
#40 = FACE_OUTER_BOUND ( 'NONE', #131, .T. ) ;
#41 = EDGE_CURVE ( 'NONE', #155, #155, #199, .T. ) ;
#42 = CALENDAR_DATE ( 2021, 13, 10 ) ;
#43 =( NAMED_UNIT ( * ) SI_UNIT ( $, .STERADIAN. ) SOLID_ANGLE_UNIT ( ) );
#44 = ADVANCED_FACE ( 'NONE', ( #27 ), #130, .F. ) ;
#45 = LOCAL_TIME ( 13, 36, 5.000000000000000000, #205 ) ;
#46 = PERSON_AND_ORGANIZATION ( #3, #61 ) ;
#47 = EDGE_CURVE ( 'NONE', #60, #60, #189, .T. ) ;
#48 = PERSON_AND_ORGANIZATION ( #3, #61 ) ;
#49 = EDGE_LOOP ( 'NONE', ( #147 ) ) ;
#50 = PERSON_AND_ORGANIZATION ( #3, #61 ) ;
#51 = EDGE_CURVE ( 'NONE', #38, #38, #202, .T. ) ;
#52 = DIRECTION ( 'NONE',  ( -3.491481338843133355E-15, 4.327174794786742882E-16, -1.000000000000000000 ) ) ;
#53 = AXIS2_PLACEMENT_3D ( 'NONE', #12, #134, #102 ) ;
#54 = DIRECTION ( 'NONE',  ( -3.491481338843133355E-15, 1.224646799147353207E-16, -1.000000000000000000 ) ) ;
#55 = ORIENTED_EDGE ( 'NONE', *, *, #201, .F. ) ;
#56 = EDGE_LOOP ( 'NONE', ( #55 ) ) ;
#57 = DIRECTION ( 'NONE',  ( -3.491481338843133355E-15, 4.327174794786742882E-16, -1.000000000000000000 ) ) ;
#58 = CARTESIAN_POINT ( 'NONE',  ( 0.0000000000000000000, 0.0000000000000000000, 0.0000000000000000000 ) ) ;
#59 = ADVANCED_FACE ( 'NONE', ( #2 ), #156, .T. ) ;
#60 = VERTEX_POINT ( 'NONE', #218 ) ;
#61 = ORGANIZATION ( 'UNSPECIFIED', 'UNSPECIFIED', '' ) ;
#62 = FACE_OUTER_BOUND ( 'NONE', #170, .T. ) ;
#63 =( GEOMETRIC_REPRESENTATION_CONTEXT ( 3 ) GLOBAL_UNCERTAINTY_ASSIGNED_CONTEXT ( ( #101 ) ) GLOBAL_UNIT_ASSIGNED_CONTEXT ( ( #7, #240, #43 ) ) REPRESENTATION_CONTEXT ( 'NONE', 'WORKASPACE' ) );
#64 = DATE_AND_TIME ( #109, #45 ) ;
#65 = CARTESIAN_POINT ( 'NONE',  ( 9.426999614876460059E-14, 2.449999999999997513, 27.00000000000000000 ) ) ;
#66 = CC_DESIGN_SECURITY_CLASSIFICATION ( #39, ( #10 ) ) ;
#67 = APPROVAL_DATE_TIME ( #207, #15 ) ;
#68 = ORIENTED_EDGE ( 'NONE', *, *, #51, .T. ) ;
#69 = CARTESIAN_POINT ( 'NONE',  ( 0.0000000000000000000, 0.0000000000000000000, 0.0000000000000000000 ) ) ;
#70 = EDGE_LOOP ( 'NONE', ( #243 ) ) ;
#71 = EDGE_LOOP ( 'NONE', ( #128 ) ) ;
#72 = AXIS2_PLACEMENT_3D ( 'NONE', #208, #74, #31 ) ;
#73 = ORIENTED_EDGE ( 'NONE', *, *, #141, .T. ) ;
#74 = DIRECTION ( 'NONE',  ( 3.491481338843133355E-15, -1.224646799147353207E-16, 1.000000000000000000 ) ) ;
#75 = DIRECTION ( 'NONE',  ( 0.0000000000000000000, -1.000000000000000000, 0.0000000000000000000 ) ) ;
#76 = PRODUCT_DEFINITION ( 'UNKNOWN', '', #10, #80 ) ;
#77 = SHAPE_DEFINITION_REPRESENTATION ( #192, #103 ) ;
#78 = DIRECTION ( 'NONE',  ( -3.491481338843133355E-15, 4.327174794786742882E-16, -1.000000000000000000 ) ) ;
#79 = DIRECTION ( 'NONE',  ( 4.275831445896958607E-31, 1.000000000000000000, 1.224646799147353207E-16 ) ) ;
#80 = DESIGN_CONTEXT ( 'detailed design', #151, 'design' ) ;
#81 = AXIS2_PLACEMENT_3D ( 'NONE', #153, #255, #261 ) ;
#82 = CARTESIAN_POINT ( 'NONE',  ( 9.426999614876460059E-14, -1.168337194592420578E-14, 27.00000000000000000 ) ) ;
#83 = CARTESIAN_POINT ( 'NONE',  ( 9.426999614876460059E-14, -1.170938346284344789E-14, 27.00000000000000000 ) ) ;
#84 = CONICAL_SURFACE ( 'NONE', #249, 2.300000000000000711, 0.7853981633974437271 ) ;
#85 = ADVANCED_FACE ( 'NONE', ( #187, #8 ), #173, .T. ) ;
#86 = PRODUCT_RELATED_PRODUCT_CATEGORY ( 'detail', '', ( #14 ) ) ;
#87 = DATE_TIME_ROLE ( 'creation_date' ) ;
#88 = DIRECTION ( 'NONE',  ( -3.491481338843133355E-15, 1.224646799147353207E-16, -1.000000000000000000 ) ) ;
#89 = AXIS2_PLACEMENT_3D ( 'NONE', #82, #232, #35 ) ;
#90 = PERSON_AND_ORGANIZATION ( #3, #61 ) ;
#91 = EDGE_LOOP ( 'NONE', ( #9 ) ) ;
#92 = ORIENTED_EDGE ( 'NONE', *, *, #201, .T. ) ;
#93 = CC_DESIGN_APPROVAL ( #107, ( #76 ) ) ;
#94 = CC_DESIGN_PERSON_AND_ORGANIZATION_ASSIGNMENT ( #48, #126, ( #10 ) ) ;
#95 = CARTESIAN_POINT ( 'NONE',  ( 2.304377683636468267E-13, -8.082668874372532400E-15, 66.00000000000000000 ) ) ;
#96 = APPROVAL_STATUS ( 'not_yet_approved' ) ;
#97 = CYLINDRICAL_SURFACE ( 'NONE', #148, 2.450000000000004619 ) ;
#98 = AXIS2_PLACEMENT_3D ( 'NONE', #210, #28, #115 ) ;
#99 = FACE_OUTER_BOUND ( 'NONE', #56, .T. ) ;
#100 = CC_DESIGN_PERSON_AND_ORGANIZATION_ASSIGNMENT ( #46, #125, ( #14 ) ) ;
#101 = UNCERTAINTY_MEASURE_WITH_UNIT (LENGTH_MEASURE( 1.000000000000000082E-05 ), #7, 'distance_accuracy_value', 'NONE');
#102 = DIRECTION ( 'NONE',  ( 4.275831445896958607E-31, 1.000000000000000000, 1.224646799147353454E-16 ) ) ;
#103 = ADVANCED_BREP_SHAPE_REPRESENTATION ( '43328', ( #30, #32, #262 ), #63 ) ;
#104 = APPLICATION_CONTEXT ( 'configuration controlled 3d designs of mechanical parts and assemblies' ) ;
#105 = CARTESIAN_POINT ( 'NONE',  ( 6.982962677686266711E-14, -8.654349589573485764E-15, 20.00000000000000000 ) ) ;
#106 = CARTESIAN_POINT ( 'NONE',  ( 3.113448438045328126E-15, -2.450000000000004619, 0.8917270739522089595 ) ) ;
#107 = APPROVAL ( #22, 'UNSPECIFIED' ) ;
#108 = APPROVAL_ROLE ( '' ) ;
#109 = CALENDAR_DATE ( 2021, 13, 10 ) ;
#110 = EDGE_LOOP ( 'NONE', ( #6 ) ) ;
#111 = LOCAL_TIME ( 13, 36, 5.000000000000000000, #195 ) ;
#112 = COORDINATED_UNIVERSAL_TIME_OFFSET ( 1, 0, .AHEAD. ) ;
#113 = DIRECTION ( 'NONE',  ( 0.0000000000000000000, -1.000000000000000000, 0.0000000000000000000 ) ) ;
#114 = CALENDAR_DATE ( 2021, 13, 10 ) ;
#115 = DIRECTION ( 'NONE',  ( -5.135813185032639159E-31, -1.000000000000000000, -1.445602896647342121E-16 ) ) ;
#116 = ORIENTED_EDGE ( 'NONE', *, *, #186, .F. ) ;
#117 = DIRECTION ( 'NONE',  ( -3.491481338843133355E-15, 1.224646799147353207E-16, -1.000000000000000000 ) ) ;
#118 = DIRECTION ( 'NONE',  ( 3.491481338843133355E-15, -1.224646799147353207E-16, 1.000000000000000000 ) ) ;
#119 = AXIS2_PLACEMENT_3D ( 'NONE', #36, #118, #174 ) ;
#120 = CARTESIAN_POINT ( 'NONE',  ( 9.601573681818617358E-14, 2.583974596215558694, 27.50000000000000000 ) ) ;
#121 = AXIS2_PLACEMENT_3D ( 'NONE', #196, #78, #157 ) ;
#122 = DATE_AND_TIME ( #42, #143 ) ;
#123 = VERTEX_POINT ( 'NONE', #127 ) ;
#124 = CIRCLE ( 'NONE', #139, 2.450000000000004619 ) ;
#125 = PERSON_AND_ORGANIZATION_ROLE ( 'design_owner' ) ;
#126 = PERSON_AND_ORGANIZATION_ROLE ( 'creator' ) ;
#127 = CARTESIAN_POINT ( 'NONE',  ( 6.982962677686266711E-14, -2.450000000000013500, 20.00000000000000000 ) ) ;
#128 = ORIENTED_EDGE ( 'NONE', *, *, #166, .T. ) ;
#129 = CIRCLE ( 'NONE', #163, 3.000000000000000444 ) ;
#130 = PLANE ( 'NONE',  #72 ) ;
#131 = EDGE_LOOP ( 'NONE', ( #68 ) ) ;
#132 = CARTESIAN_POINT ( 'NONE',  ( 2.304377683636468267E-13, 1.724723750061124754E-32, 66.00000000000000000 ) ) ;
#133 = LOCAL_TIME ( 13, 36, 5.000000000000000000, #112 ) ;
#134 = DIRECTION ( 'NONE',  ( -3.491481338843133355E-15, 1.224646799147353207E-16, -1.000000000000000000 ) ) ;
#135 = FACE_OUTER_BOUND ( 'NONE', #167, .T. ) ;
#136 = DIRECTION ( 'NONE',  ( -3.491481338843133355E-15, 1.224646799147353207E-16, -1.000000000000000000 ) ) ;
#137 = CLOSED_SHELL ( 'NONE', ( #85, #193, #253, #190, #168, #231, #44 ) ) ;
#138 = DIRECTION ( 'NONE',  ( -4.716563129111588820E-31, -1.000000000000000000, -1.327594496921023252E-16 ) ) ;
#139 = AXIS2_PLACEMENT_3D ( 'NONE', #105, #219, #216 ) ;
#140 = APPROVAL_ROLE ( '' ) ;
#141 = EDGE_CURVE ( 'NONE', #198, #198, #179, .T. ) ;
#142 = CARTESIAN_POINT ( 'NONE',  ( 6.982962677686266711E-14, -2.450000000000013500, 20.00000000000000000 ) ) ;
#143 = LOCAL_TIME ( 13, 36, 5.000000000000000000, #185 ) ;
#144 = APPLICATION_PROTOCOL_DEFINITION ( 'international standard', 'config_control_design', 1994, #104 ) ;
#145 = EDGE_LOOP ( 'NONE', ( #226 ) ) ;
#146 = APPROVAL_DATE_TIME ( #64, #107 ) ;
#147 = ORIENTED_EDGE ( 'NONE', *, *, #47, .T. ) ;
#148 = AXIS2_PLACEMENT_3D ( 'NONE', #58, #57, #260 ) ;
#149 = ADVANCED_FACE ( 'NONE', ( #33, #217 ), #97, .T. ) ;
#150 = CARTESIAN_POINT ( 'NONE',  ( 9.601573681818617358E-14, -1.189973068566354293E-14, 27.50000000000000000 ) ) ;
#151 = APPLICATION_CONTEXT ( 'configuration controlled 3d designs of mechanical parts and assemblies' ) ;
#152 = DIRECTION ( 'NONE',  ( 0.0000000000000000000, 1.000000000000000000, 0.0000000000000000000 ) ) ;
#153 = CARTESIAN_POINT ( 'NONE',  ( 1.015553299800785925E-13, -1.258628133787056192E-14, 29.08660254037843984 ) ) ;
#154 = FACE_BOUND ( 'NONE', #49, .T. ) ;
#155 = VERTEX_POINT ( 'NONE', #236 ) ;
#156 = CONICAL_SURFACE ( 'NONE', #98, 2.999999999999993783, 1.221730476396026388 ) ;
#157 = DIRECTION ( 'NONE',  ( 1.510825004591028030E-30, 1.000000000000000000, 4.327174794786742389E-16 ) ) ;
#158 = DIRECTION ( 'NONE',  ( -3.491481338843133355E-15, 4.327174794786742882E-16, -1.000000000000000000 ) ) ;
#159 = CLOSED_SHELL ( 'NONE', ( #59, #149, #235 ) ) ;
#160 = DATE_AND_TIME ( #1, #222 ) ;
#161 = VERTEX_POINT ( 'NONE', #65 ) ;
#162 = APPROVAL_STATUS ( 'not_yet_approved' ) ;
#163 = AXIS2_PLACEMENT_3D ( 'NONE', #188, #54, #250 ) ;
#164 = COORDINATED_UNIVERSAL_TIME_OFFSET ( 1, 0, .AHEAD. ) ;
#165 = DIRECTION ( 'NONE',  ( 0.0000000000000000000, 1.000000000000000000, 0.0000000000000000000 ) ) ;
#166 = EDGE_CURVE ( 'NONE', #223, #223, #124, .T. ) ;
#167 = EDGE_LOOP ( 'NONE', ( #116 ) ) ;
#168 = ADVANCED_FACE ( 'NONE', ( #17, #200 ), #26, .T. ) ;
#169 = EDGE_LOOP ( 'NONE', ( #73 ) ) ;
#170 = EDGE_LOOP ( 'NONE', ( #183 ) ) ;
#171 = CARTESIAN_POINT ( 'NONE',  ( 2.279937314264566018E-13, 2.999999999999992895, 65.29999999999999716 ) ) ;
#172 = APPROVAL_ROLE ( '' ) ;
#173 = CYLINDRICAL_SURFACE ( 'NONE', #53, 2.999999999999998224 ) ;
#174 = DIRECTION ( 'NONE',  ( -4.275831445896958607E-31, -1.000000000000000000, -1.224646799147353207E-16 ) ) ;
#175 = CC_DESIGN_APPROVAL ( #182, ( #39 ) ) ;
#176 = DIRECTION ( 'NONE',  ( -3.491481338843133355E-15, 1.224646799147353207E-16, -1.000000000000000000 ) ) ;
#177 = CYLINDRICAL_SURFACE ( 'NONE', #121, 2.450000000000004619 ) ;
#178 = DIRECTION ( 'NONE',  ( 1.000000000000000000, 0.0000000000000000000, 0.0000000000000000000 ) ) ;
#179 = CIRCLE ( 'NONE', #233, 2.450000000000004619 ) ;
#180 = MECHANICAL_CONTEXT ( 'NONE', #104, 'mechanical' ) ;
#181 = PERSON_AND_ORGANIZATION_ROLE ( 'creator' ) ;
#182 = APPROVAL ( #96, 'UNSPECIFIED' ) ;
#183 = ORIENTED_EDGE ( 'NONE', *, *, #29, .F. ) ;
#184 = TOROIDAL_SURFACE ( 'NONE', #214, 3.450000000000008171, 0.9999999999999993339 ) ;
#185 = COORDINATED_UNIVERSAL_TIME_OFFSET ( 1, 0, .AHEAD. ) ;
#186 = EDGE_CURVE ( 'NONE', #161, #161, #237, .T. ) ;
#187 = FACE_OUTER_BOUND ( 'NONE', #70, .T. ) ;
#188 = CARTESIAN_POINT ( 'NONE',  ( 2.279937314264566018E-13, -7.996943598432214956E-15, 65.29999999999999716 ) ) ;
#189 = CIRCLE ( 'NONE', #197, 2.300000000000000711 ) ;
#190 = ADVANCED_FACE ( 'NONE', ( #252, #99 ), #177, .T. ) ;
#191 = FACE_OUTER_BOUND ( 'NONE', #91, .T. ) ;
#192 = PRODUCT_DEFINITION_SHAPE ( 'NONE', 'NONE',  #76 ) ;
#193 = ADVANCED_FACE ( 'NONE', ( #62, #154 ), #84, .T. ) ;
#194 = DIRECTION ( 'NONE',  ( 0.0000000000000000000, 1.000000000000000000, 0.0000000000000000000 ) ) ;
#195 = COORDINATED_UNIVERSAL_TIME_OFFSET ( 1, 0, .AHEAD. ) ;
#196 = CARTESIAN_POINT ( 'NONE',  ( 0.0000000000000000000, 0.0000000000000000000, 0.0000000000000000000 ) ) ;
#197 = AXIS2_PLACEMENT_3D ( 'NONE', #25, #88, #165 ) ;
#198 = VERTEX_POINT ( 'NONE', #106 ) ;
#199 = CIRCLE ( 'NONE', #257, 2.999999999999998224 ) ;
#200 = FACE_OUTER_BOUND ( 'NONE', #224, .T. ) ;
#201 = EDGE_CURVE ( 'NONE', #123, #123, #228, .T. ) ;
#202 = CIRCLE ( 'NONE', #37, 2.583974596215570685 ) ;
#203 = APPLICATION_PROTOCOL_DEFINITION ( 'international standard', 'config_control_design', 1994, #151 ) ;
#204 = CARTESIAN_POINT ( 'NONE',  ( 9.853161844380107554E-14, -1.221153700798045157E-14, 28.22057713659398104 ) ) ;
#205 = COORDINATED_UNIVERSAL_TIME_OFFSET ( 1, 0, .AHEAD. ) ;
#206 = ORIENTED_EDGE ( 'NONE', *, *, #29, .T. ) ;
#207 = DATE_AND_TIME ( #241, #133 ) ;
#208 = CARTESIAN_POINT ( 'NONE',  ( 6.982962677686266711E-14, 2.249639673992779843E-32, 20.00000000000000000 ) ) ;
#209 = APPROVAL_PERSON_ORGANIZATION ( #263, #15, #140 ) ;
#210 = CARTESIAN_POINT ( 'NONE',  ( 3.812385842504470444E-15, -1.337204947137066162E-16, 1.091910702798619459 ) ) ;
#211 = EDGE_LOOP ( 'NONE', ( #206 ) ) ;
#212 = DATE_TIME_ROLE ( 'classification_date' ) ;
#213 = DIRECTION ( 'NONE',  ( -3.491481338843133355E-15, 1.224646799147353207E-16, -1.000000000000000000 ) ) ;
#214 = AXIS2_PLACEMENT_3D ( 'NONE', #83, #158, #13 ) ;
#215 = CC_DESIGN_PERSON_AND_ORGANIZATION_ASSIGNMENT ( #50, #19, ( #39 ) ) ;
#216 = DIRECTION ( 'NONE',  ( 0.0000000000000000000, -1.000000000000000000, 0.0000000000000000000 ) ) ;
#217 = FACE_OUTER_BOUND ( 'NONE', #227, .T. ) ;
#218 = CARTESIAN_POINT ( 'NONE',  ( 2.304377683636468267E-13, 2.299999999999992717, 66.00000000000000000 ) ) ;
#219 = DIRECTION ( 'NONE',  ( -3.491481338843133355E-15, 1.224646799147353207E-16, -1.000000000000000000 ) ) ;
#220 = CC_DESIGN_APPROVAL ( #15, ( #10 ) ) ;
#221 = SECURITY_CLASSIFICATION_LEVEL ( 'unclassified' ) ;
#222 = LOCAL_TIME ( 13, 36, 5.000000000000000000, #164 ) ;
#223 = VERTEX_POINT ( 'NONE', #142 ) ;
#224 = EDGE_LOOP ( 'NONE', ( #245 ) ) ;
#225 = PERSON_AND_ORGANIZATION ( #3, #61 ) ;
#226 = ORIENTED_EDGE ( 'NONE', *, *, #166, .F. ) ;
#227 = EDGE_LOOP ( 'NONE', ( #247 ) ) ;
#228 = CIRCLE ( 'NONE', #20, 2.450000000000004619 ) ;
#229 = EDGE_LOOP ( 'NONE', ( #92 ) ) ;
#230 = ORIENTED_EDGE ( 'NONE', *, *, #51, .F. ) ;
#231 = ADVANCED_FACE ( 'NONE', ( #135, #40 ), #184, .F. ) ;
#232 = DIRECTION ( 'NONE',  ( -3.491481338843133355E-15, 4.327174794786742882E-16, -1.000000000000000000 ) ) ;
#233 = AXIS2_PLACEMENT_3D ( 'NONE', #16, #176, #138 ) ;
#234 = PLANE ( 'NONE',  #119 ) ;
#235 = ADVANCED_FACE ( 'NONE', ( #239 ), #234, .T. ) ;
#236 = CARTESIAN_POINT ( 'NONE',  ( 9.853161844380107554E-14, -3.000000000000010658, 28.22057713659398104 ) ) ;
#237 = CIRCLE ( 'NONE', #89, 2.450000000000009059 ) ;
#238 = CARTESIAN_POINT ( 'NONE',  ( 6.982962677686266711E-14, -8.654349589573485764E-15, 20.00000000000000000 ) ) ;
#239 = FACE_OUTER_BOUND ( 'NONE', #145, .T. ) ;
#240 =( NAMED_UNIT ( * ) PLANE_ANGLE_UNIT ( ) SI_UNIT ( $, .RADIAN. ) );
#241 = CALENDAR_DATE ( 2021, 13, 10 ) ;
#242 = AXIS2_PLACEMENT_3D ( 'NONE', #132, #213, #79 ) ;
#243 = ORIENTED_EDGE ( 'NONE', *, *, #41, .T. ) ;
#244 = PERSON_AND_ORGANIZATION_ROLE ( 'design_supplier' ) ;
#245 = ORIENTED_EDGE ( 'NONE', *, *, #41, .F. ) ;
#246 = PERSON_AND_ORGANIZATION ( #3, #61 ) ;
#247 = ORIENTED_EDGE ( 'NONE', *, *, #141, .F. ) ;
#248 = EDGE_LOOP ( 'NONE', ( #230 ) ) ;
#249 = AXIS2_PLACEMENT_3D ( 'NONE', #95, #117, #194 ) ;
#250 = DIRECTION ( 'NONE',  ( 0.0000000000000000000, 1.000000000000000000, 0.0000000000000000000 ) ) ;
#251 = APPROVAL_DATE_TIME ( #254, #182 ) ;
#252 = FACE_OUTER_BOUND ( 'NONE', #110, .T. ) ;
#253 = ADVANCED_FACE ( 'NONE', ( #191 ), #258, .F. ) ;
#254 = DATE_AND_TIME ( #114, #111 ) ;
#255 = DIRECTION ( 'NONE',  ( 3.491481338843133355E-15, -4.327174794786742882E-16, 1.000000000000000000 ) ) ;
#256 = CC_DESIGN_DATE_AND_TIME_ASSIGNMENT ( #122, #212, ( #39 ) ) ;
#257 = AXIS2_PLACEMENT_3D ( 'NONE', #204, #23, #113 ) ;
#258 = PLANE ( 'NONE',  #242 ) ;
#259 = CC_DESIGN_PERSON_AND_ORGANIZATION_ASSIGNMENT ( #225, #244, ( #10 ) ) ;
#260 = DIRECTION ( 'NONE',  ( 1.510825004591028030E-30, 1.000000000000000000, 4.327174794786742389E-16 ) ) ;
#261 = DIRECTION ( 'NONE',  ( 0.0000000000000000000, -1.000000000000000000, 0.0000000000000000000 ) ) ;
#262 = AXIS2_PLACEMENT_3D ( 'NONE', #69, #21, #178 ) ;
#263 = PERSON_AND_ORGANIZATION ( #3, #61 ) ;
ENDSEC;
END-ISO-10303-21;
