ISO-10303-21;
HEADER;
FILE_DESCRIPTION (( 'STEP AP203' ),
    '1' );
FILE_NAME ('43327.step',
    '2021-10-13T11:36:04',
    ( '' ),
    ( '' ),
    'SwSTEP 2.0',
    'SolidWorks 2019',
    '' );
FILE_SCHEMA (( 'CONFIG_CONTROL_DESIGN' ));
ENDSEC;

DATA;
#1 = FACE_OUTER_BOUND ( 'NONE', #221, .T. ) ;
#2 = CC_DESIGN_PERSON_AND_ORGANIZATION_ASSIGNMENT ( #229, #147, ( #73 ) ) ;
#3 = AXIS2_PLACEMENT_3D ( 'NONE', #198, #162, #70 ) ;
#4 = PERSON_AND_ORGANIZATION ( #171, #132 ) ;
#5 = PERSON_AND_ORGANIZATION ( #171, #132 ) ;
#6 = APPROVAL_STATUS ( 'not_yet_approved' ) ;
#7 = CALENDAR_DATE ( 2021, 13, 10 ) ;
#8 = CC_DESIGN_PERSON_AND_ORGANIZATION_ASSIGNMENT ( #174, #190, ( #173 ) ) ;
#9 = FACE_OUTER_BOUND ( 'NONE', #92, .T. ) ;
#10 = LOCAL_TIME ( 13, 36, 4.000000000000000000, #63 ) ;
#11 = ORIENTED_EDGE ( 'NONE', *, *, #218, .F. ) ;
#12 = ADVANCED_BREP_SHAPE_REPRESENTATION ( '43327', ( #22, #206, #194 ), #244 ) ;
#13 = AXIS2_PLACEMENT_3D ( 'NONE', #185, #140, #37 ) ;
#14 = FACE_OUTER_BOUND ( 'NONE', #134, .T. ) ;
#15 = FACE_OUTER_BOUND ( 'NONE', #94, .T. ) ;
#16 = CARTESIAN_POINT ( 'NONE',  ( 3.049908674003587557E-15, -1.069763957709656923E-16, 0.8735285622388988536 ) ) ;
#17 = LOCAL_TIME ( 13, 36, 4.000000000000000000, #43 ) ;
#18 = DIRECTION ( 'NONE',  ( 0.0000000000000000000, -1.000000000000000000, 0.0000000000000000000 ) ) ;
#19 = PERSON_AND_ORGANIZATION_ROLE ( 'creator' ) ;
#20 = AXIS2_PLACEMENT_3D ( 'NONE', #72, #157, #156 ) ;
#21 = CALENDAR_DATE ( 2021, 13, 10 ) ;
#22 = MANIFOLD_SOLID_BREP ( 'Corps-Déplacer/Copier1[1]', #159 ) ;
#23 = COORDINATED_UNIVERSAL_TIME_OFFSET ( 1, 0, .AHEAD. ) ;
#24 = CIRCLE ( 'NONE', #71, 2.999999999999998224 ) ;
#25 = EDGE_CURVE ( 'NONE', #77, #77, #108, .T. ) ;
#26 = FACE_OUTER_BOUND ( 'NONE', #110, .T. ) ;
#27 = CARTESIAN_POINT ( 'NONE',  ( 2.279937314264566018E-13, -7.996943598432214956E-15, 65.29999999999999716 ) ) ;
#28 = EDGE_LOOP ( 'NONE', ( #200 ) ) ;
#29 = ORIENTED_EDGE ( 'NONE', *, *, #183, .T. ) ;
#30 = PLANE ( 'NONE',  #118 ) ;
#31 = CYLINDRICAL_SURFACE ( 'NONE', #62, 2.400000000000003908 ) ;
#32 = ADVANCED_FACE ( 'NONE', ( #9 ), #89, .T. ) ;
#33 = DIRECTION ( 'NONE',  ( -3.491481338843133355E-15, 1.224646799147353207E-16, -1.000000000000000000 ) ) ;
#34 = DIRECTION ( 'NONE',  ( -4.814824860968081750E-31, -1.000000000000000000, -1.355252715606878324E-16 ) ) ;
#35 = CARTESIAN_POINT ( 'NONE',  ( 9.883398959742883860E-14, -1.224901144096946229E-14, 28.30717967697243154 ) ) ;
#36 = CLOSED_SHELL ( 'NONE', ( #226, #107, #32 ) ) ;
#37 = DIRECTION ( 'NONE',  ( 0.0000000000000000000, 1.000000000000000000, 0.0000000000000000000 ) ) ;
#38 = ADVANCED_FACE ( 'NONE', ( #199 ), #30, .F. ) ;
#39 = APPROVAL_ROLE ( '' ) ;
#40 = PRODUCT_RELATED_PRODUCT_CATEGORY ( 'detail', '', ( #73 ) ) ;
#41 = CALENDAR_DATE ( 2021, 13, 10 ) ;
#42 = AXIS2_PLACEMENT_3D ( 'NONE', #248, #66, #129 ) ;
#43 = COORDINATED_UNIVERSAL_TIME_OFFSET ( 1, 0, .AHEAD. ) ;
#44 = CIRCLE ( 'NONE', #104, 2.400000000000003908 ) ;
#45 = ORIENTED_EDGE ( 'NONE', *, *, #260, .T. ) ;
#46 = EDGE_LOOP ( 'NONE', ( #235 ) ) ;
#47 = FACE_BOUND ( 'NONE', #154, .T. ) ;
#48 = EDGE_CURVE ( 'NONE', #96, #96, #261, .T. ) ;
#49 = AXIS2_PLACEMENT_3D ( 'NONE', #184, #33, #119 ) ;
#50 = FACE_OUTER_BOUND ( 'NONE', #131, .T. ) ;
#51 = CYLINDRICAL_SURFACE ( 'NONE', #42, 2.999999999999998224 ) ;
#52 = FACE_BOUND ( 'NONE', #46, .T. ) ;
#53 = APPROVAL ( #151, 'UNSPECIFIED' ) ;
#54 = VERTEX_POINT ( 'NONE', #257 ) ;
#55 = CARTESIAN_POINT ( 'NONE',  ( 2.279937314264566018E-13, 2.999999999999992895, 65.29999999999999716 ) ) ;
#56 = FACE_OUTER_BOUND ( 'NONE', #28, .T. ) ;
#57 = ADVANCED_FACE ( 'NONE', ( #47, #233 ), #250, .T. ) ;
#58 = DIRECTION ( 'NONE',  ( 3.491481338843133355E-15, -4.327174794786742882E-16, 1.000000000000000000 ) ) ;
#59 = CONICAL_SURFACE ( 'NONE', #191, 2.300000000000000711, 0.7853981633974437271 ) ;
#60 = MECHANICAL_CONTEXT ( 'NONE', #165, 'mechanical' ) ;
#61 = DATE_AND_TIME ( #243, #136 ) ;
#62 = AXIS2_PLACEMENT_3D ( 'NONE', #208, #168, #241 ) ;
#63 = COORDINATED_UNIVERSAL_TIME_OFFSET ( 1, 0, .AHEAD. ) ;
#64 = PERSON_AND_ORGANIZATION ( #171, #132 ) ;
#65 = APPROVAL_DATE_TIME ( #69, #90 ) ;
#66 = DIRECTION ( 'NONE',  ( -3.491481338843133355E-15, 1.224646799147353207E-16, -1.000000000000000000 ) ) ;
#67 = LOCAL_TIME ( 13, 36, 4.000000000000000000, #23 ) ;
#68 = EDGE_LOOP ( 'NONE', ( #216 ) ) ;
#69 = DATE_AND_TIME ( #7, #215 ) ;
#70 = DIRECTION ( 'NONE',  ( 0.0000000000000000000, -1.000000000000000000, 0.0000000000000000000 ) ) ;
#71 = AXIS2_PLACEMENT_3D ( 'NONE', #35, #58, #18 ) ;
#72 = CARTESIAN_POINT ( 'NONE',  ( 6.982962677686266711E-14, -8.654349589573485764E-15, 20.00000000000000000 ) ) ;
#73 = PRODUCT ( '43327', '43327', '', ( #60 ) ) ;
#74 = CARTESIAN_POINT ( 'NONE',  ( 6.982962677686266711E-14, 2.249639673992779843E-32, 20.00000000000000000 ) ) ;
#75 = FACE_OUTER_BOUND ( 'NONE', #93, .T. ) ;
#76 = COORDINATED_UNIVERSAL_TIME_OFFSET ( 1, 0, .AHEAD. ) ;
#77 = VERTEX_POINT ( 'NONE', #239 ) ;
#78 = DIRECTION ( 'NONE',  ( 3.491481338843133355E-15, -1.224646799147353207E-16, 1.000000000000000000 ) ) ;
#79 = ADVANCED_FACE ( 'NONE', ( #220, #50 ), #51, .T. ) ;
#80 = CARTESIAN_POINT ( 'NONE',  ( 0.0000000000000000000, 0.0000000000000000000, 0.0000000000000000000 ) ) ;
#81 = CALENDAR_DATE ( 2021, 13, 10 ) ;
#82 = CIRCLE ( 'NONE', #49, 2.400000000000003908 ) ;
#83 = APPROVAL_STATUS ( 'not_yet_approved' ) ;
#84 = ADVANCED_FACE ( 'NONE', ( #26 ), #202, .F. ) ;
#85 = CARTESIAN_POINT ( 'NONE',  ( 6.982962677686266711E-14, -2.400000000000012790, 20.00000000000000000 ) ) ;
#86 = APPROVAL_DATE_TIME ( #61, #246 ) ;
#87 = CC_DESIGN_SECURITY_CLASSIFICATION ( #113, ( #173 ) ) ;
#88 = APPROVAL_ROLE ( '' ) ;
#89 = PLANE ( 'NONE',  #109 ) ;
#90 = APPROVAL ( #83, 'UNSPECIFIED' ) ;
#91 = DIRECTION ( 'NONE',  ( 3.491481338843133355E-15, -1.224646799147353207E-16, 1.000000000000000000 ) ) ;
#92 = EDGE_LOOP ( 'NONE', ( #158 ) ) ;
#93 = EDGE_LOOP ( 'NONE', ( #230 ) ) ;
#94 = EDGE_LOOP ( 'NONE', ( #116 ) ) ;
#95 = CC_DESIGN_APPROVAL ( #90, ( #113 ) ) ;
#96 = VERTEX_POINT ( 'NONE', #55 ) ;
#97 = CARTESIAN_POINT ( 'NONE',  ( 2.304377683636468267E-13, -8.082668874372532400E-15, 66.00000000000000000 ) ) ;
#98 = DIRECTION ( 'NONE',  ( 1.559107358051499483E-30, 1.000000000000000000, 4.327174794786742389E-16 ) ) ;
#99 = CARTESIAN_POINT ( 'NONE',  ( 9.426999614876461321E-14, -1.170938346284344789E-14, 27.00000000000000355 ) ) ;
#100 = AXIS2_PLACEMENT_3D ( 'NONE', #99, #123, #98 ) ;
#101 = FACE_OUTER_BOUND ( 'NONE', #178, .T. ) ;
#102 = SECURITY_CLASSIFICATION_LEVEL ( 'unclassified' ) ;
#103 = COORDINATED_UNIVERSAL_TIME_OFFSET ( 1, 0, .AHEAD. ) ;
#104 = AXIS2_PLACEMENT_3D ( 'NONE', #16, #225, #34 ) ;
#105 =( LENGTH_UNIT ( ) NAMED_UNIT ( * ) SI_UNIT ( .MILLI., .METRE. ) );
#106 = PERSON_AND_ORGANIZATION ( #171, #132 ) ;
#107 = ADVANCED_FACE ( 'NONE', ( #101, #15 ), #31, .T. ) ;
#108 = CIRCLE ( 'NONE', #20, 2.400000000000003908 ) ;
#109 = AXIS2_PLACEMENT_3D ( 'NONE', #253, #91, #114 ) ;
#110 = EDGE_LOOP ( 'NONE', ( #45 ) ) ;
#111 = SHAPE_DEFINITION_REPRESENTATION ( #203, #12 ) ;
#112 = EDGE_LOOP ( 'NONE', ( #251 ) ) ;
#113 = SECURITY_CLASSIFICATION ( '', '', #102 ) ;
#114 = DIRECTION ( 'NONE',  ( -4.275831445896958607E-31, -1.000000000000000000, -1.224646799147353207E-16 ) ) ;
#115 = DESIGN_CONTEXT ( 'detailed design', #234, 'design' ) ;
#116 = ORIENTED_EDGE ( 'NONE', *, *, #170, .F. ) ;
#117 = ORIENTED_EDGE ( 'NONE', *, *, #120, .T. ) ;
#118 = AXIS2_PLACEMENT_3D ( 'NONE', #130, #175, #237 ) ;
#119 = DIRECTION ( 'NONE',  ( 0.0000000000000000000, -1.000000000000000000, 0.0000000000000000000 ) ) ;
#120 = EDGE_CURVE ( 'NONE', #54, #54, #24, .T. ) ;
#121 = VERTEX_POINT ( 'NONE', #187 ) ;
#122 = DIRECTION ( 'NONE',  ( -4.275831445896958607E-31, -1.000000000000000000, -1.224646799147353207E-16 ) ) ;
#123 = DIRECTION ( 'NONE',  ( -3.491481338843133355E-15, 4.327174794786742882E-16, -1.000000000000000000 ) ) ;
#124 = DATE_AND_TIME ( #81, #10 ) ;
#125 = PERSON_AND_ORGANIZATION ( #171, #132 ) ;
#126 = AXIS2_PLACEMENT_3D ( 'NONE', #80, #259, #262 ) ;
#127 = VERTEX_POINT ( 'NONE', #85 ) ;
#128 = CIRCLE ( 'NONE', #13, 2.533974596215570863 ) ;
#129 = DIRECTION ( 'NONE',  ( 4.275831445896958607E-31, 1.000000000000000000, 1.224646799147353454E-16 ) ) ;
#130 = CARTESIAN_POINT ( 'NONE',  ( 2.304377683636468267E-13, 1.724723750061124754E-32, 66.00000000000000000 ) ) ;
#131 = EDGE_LOOP ( 'NONE', ( #197 ) ) ;
#132 = ORGANIZATION ( 'UNSPECIFIED', 'UNSPECIFIED', '' ) ;
#133 = ORIENTED_EDGE ( 'NONE', *, *, #183, .F. ) ;
#134 = EDGE_LOOP ( 'NONE', ( #196 ) ) ;
#135 = CARTESIAN_POINT ( 'NONE',  ( 3.812385842504470444E-15, -1.337204947137066162E-16, 1.091910702798619459 ) ) ;
#136 = LOCAL_TIME ( 13, 36, 4.000000000000000000, #103 ) ;
#137 = AXIS2_PLACEMENT_3D ( 'NONE', #74, #204, #122 ) ;
#138 = CARTESIAN_POINT ( 'NONE',  ( 9.601573681818618620E-14, 2.533974596215559316, 27.50000000000000355 ) ) ;
#139 = ADVANCED_FACE ( 'NONE', ( #228, #52 ), #59, .T. ) ;
#140 = DIRECTION ( 'NONE',  ( -3.491481338843133355E-15, 4.327174794786742882E-16, -1.000000000000000000 ) ) ;
#141 = CC_DESIGN_DATE_AND_TIME_ASSIGNMENT ( #124, #211, ( #113 ) ) ;
#142 = CARTESIAN_POINT ( 'NONE',  ( 9.426999614876460059E-14, -1.168337194592420578E-14, 27.00000000000000000 ) ) ;
#143 = CARTESIAN_POINT ( 'NONE',  ( 2.304377683636468267E-13, -8.082668874372532400E-15, 66.00000000000000000 ) ) ;
#144 = CC_DESIGN_PERSON_AND_ORGANIZATION_ASSIGNMENT ( #172, #19, ( #173 ) ) ;
#145 = AXIS2_PLACEMENT_3D ( 'NONE', #135, #78, #222 ) ;
#146 = CARTESIAN_POINT ( 'NONE',  ( 0.0000000000000000000, 0.0000000000000000000, 0.0000000000000000000 ) ) ;
#147 = PERSON_AND_ORGANIZATION_ROLE ( 'design_owner' ) ;
#148 = CARTESIAN_POINT ( 'NONE',  ( 2.304377683636468267E-13, 2.299999999999992717, 66.00000000000000000 ) ) ;
#149 = AXIS2_PLACEMENT_3D ( 'NONE', #27, #217, #236 ) ;
#150 = ADVANCED_FACE ( 'NONE', ( #56, #1 ), #155, .F. ) ;
#151 = APPROVAL_STATUS ( 'not_yet_approved' ) ;
#152 = PERSON_AND_ORGANIZATION_ROLE ( 'creator' ) ;
#153 = PRODUCT_DEFINITION ( 'UNKNOWN', '', #173, #115 ) ;
#154 = EDGE_LOOP ( 'NONE', ( #133 ) ) ;
#155 = TOROIDAL_SURFACE ( 'NONE', #100, 3.400000000000008349, 0.9999999999999991118 ) ;
#156 = DIRECTION ( 'NONE',  ( 0.0000000000000000000, -1.000000000000000000, 0.0000000000000000000 ) ) ;
#157 = DIRECTION ( 'NONE',  ( -3.491481338843133355E-15, 1.224646799147353207E-16, -1.000000000000000000 ) ) ;
#158 = ORIENTED_EDGE ( 'NONE', *, *, #25, .F. ) ;
#159 = CLOSED_SHELL ( 'NONE', ( #79, #139, #38, #209, #57, #150, #84 ) ) ;
#160 = CIRCLE ( 'NONE', #249, 2.400000000000008349 ) ;
#161 = EDGE_CURVE ( 'NONE', #121, #121, #160, .T. ) ;
#162 = DIRECTION ( 'NONE',  ( 3.491481338843133355E-15, -4.327174794786742882E-16, 1.000000000000000000 ) ) ;
#163 = DIRECTION ( 'NONE',  ( -3.491481338843133355E-15, 1.224646799147353207E-16, -1.000000000000000000 ) ) ;
#164 = FACE_OUTER_BOUND ( 'NONE', #68, .T. ) ;
#165 = APPLICATION_CONTEXT ( 'configuration controlled 3d designs of mechanical parts and assemblies' ) ;
#166 = DIRECTION ( 'NONE',  ( 0.0000000000000000000, 1.000000000000000000, 0.0000000000000000000 ) ) ;
#167 = CARTESIAN_POINT ( 'NONE',  ( 3.049908674003586374E-15, -2.400000000000003908, 0.8735285622388985205 ) ) ;
#168 = DIRECTION ( 'NONE',  ( -3.491481338843133355E-15, 4.327174794786742882E-16, -1.000000000000000000 ) ) ;
#169 = APPLICATION_PROTOCOL_DEFINITION ( 'international standard', 'config_control_design', 1994, #165 ) ;
#170 = EDGE_CURVE ( 'NONE', #182, #182, #44, .T. ) ;
#171 = PERSON ( 'UNSPECIFIED', 'UNSPECIFIED', 'UNSPECIFIED', ('UNSPECIFIED'), ('UNSPECIFIED'), ('UNSPECIFIED') ) ;
#172 = PERSON_AND_ORGANIZATION ( #171, #132 ) ;
#173 = PRODUCT_DEFINITION_FORMATION_WITH_SPECIFIED_SOURCE ( 'ANY', '', #73, .NOT_KNOWN. ) ;
#174 = PERSON_AND_ORGANIZATION ( #171, #132 ) ;
#175 = DIRECTION ( 'NONE',  ( -3.491481338843133355E-15, 1.224646799147353207E-16, -1.000000000000000000 ) ) ;
#176 = ORIENTED_EDGE ( 'NONE', *, *, #25, .T. ) ;
#177 = APPROVAL_PERSON_ORGANIZATION ( #4, #90, #195 ) ;
#178 = EDGE_LOOP ( 'NONE', ( #176 ) ) ;
#179 = EDGE_LOOP ( 'NONE', ( #11 ) ) ;
#180 = CC_DESIGN_DATE_AND_TIME_ASSIGNMENT ( #192, #210, ( #153 ) ) ;
#181 = APPROVAL_PERSON_ORGANIZATION ( #5, #53, #39 ) ;
#182 = VERTEX_POINT ( 'NONE', #167 ) ;
#183 = EDGE_CURVE ( 'NONE', #240, #240, #128, .T. ) ;
#184 = CARTESIAN_POINT ( 'NONE',  ( 6.982962677686266711E-14, -8.654349589573485764E-15, 20.00000000000000000 ) ) ;
#185 = CARTESIAN_POINT ( 'NONE',  ( 9.601573681818618620E-14, -1.189973068566354450E-14, 27.50000000000000355 ) ) ;
#186 = UNCERTAINTY_MEASURE_WITH_UNIT (LENGTH_MEASURE( 1.000000000000000082E-05 ), #105, 'distance_accuracy_value', 'NONE');
#187 = CARTESIAN_POINT ( 'NONE',  ( 9.426999614876460059E-14, 2.399999999999996803, 27.00000000000000000 ) ) ;
#188 = DIRECTION ( 'NONE',  ( 0.0000000000000000000, 1.000000000000000000, 0.0000000000000000000 ) ) ;
#189 = DIRECTION ( 'NONE',  ( 1.000000000000000000, 0.0000000000000000000, 0.0000000000000000000 ) ) ;
#190 = PERSON_AND_ORGANIZATION_ROLE ( 'design_supplier' ) ;
#191 = AXIS2_PLACEMENT_3D ( 'NONE', #143, #205, #188 ) ;
#192 = DATE_AND_TIME ( #21, #17 ) ;
#193 = APPROVAL_DATE_TIME ( #247, #53 ) ;
#194 = AXIS2_PLACEMENT_3D ( 'NONE', #146, #212, #189 ) ;
#195 = APPROVAL_ROLE ( '' ) ;
#196 = ORIENTED_EDGE ( 'NONE', *, *, #161, .T. ) ;
#197 = ORIENTED_EDGE ( 'NONE', *, *, #48, .T. ) ;
#198 = CARTESIAN_POINT ( 'NONE',  ( 1.018577011337063555E-13, -1.262375577085957422E-14, 29.17320508075688679 ) ) ;
#199 = FACE_OUTER_BOUND ( 'NONE', #179, .T. ) ;
#200 = ORIENTED_EDGE ( 'NONE', *, *, #161, .F. ) ;
#201 = CIRCLE ( 'NONE', #232, 2.300000000000000711 ) ;
#202 = PLANE ( 'NONE',  #137 ) ;
#203 = PRODUCT_DEFINITION_SHAPE ( 'NONE', 'NONE',  #153 ) ;
#204 = DIRECTION ( 'NONE',  ( 3.491481338843133355E-15, -1.224646799147353207E-16, 1.000000000000000000 ) ) ;
#205 = DIRECTION ( 'NONE',  ( -3.491481338843133355E-15, 1.224646799147353207E-16, -1.000000000000000000 ) ) ;
#206 = MANIFOLD_SOLID_BREP ( 'Corps-Déplacer/Copier1[2]', #36 ) ;
#207 = APPROVAL_PERSON_ORGANIZATION ( #106, #246, #88 ) ;
#208 = CARTESIAN_POINT ( 'NONE',  ( 0.0000000000000000000, 0.0000000000000000000, 0.0000000000000000000 ) ) ;
#209 = ADVANCED_FACE ( 'NONE', ( #14, #164 ), #238, .T. ) ;
#210 = DATE_TIME_ROLE ( 'creation_date' ) ;
#211 = DATE_TIME_ROLE ( 'classification_date' ) ;
#212 = DIRECTION ( 'NONE',  ( 0.0000000000000000000, 0.0000000000000000000, 1.000000000000000000 ) ) ;
#213 = APPLICATION_PROTOCOL_DEFINITION ( 'international standard', 'config_control_design', 1994, #234 ) ;
#214 =( NAMED_UNIT ( * ) SI_UNIT ( $, .STERADIAN. ) SOLID_ANGLE_UNIT ( ) );
#215 = LOCAL_TIME ( 13, 36, 4.000000000000000000, #76 ) ;
#216 = ORIENTED_EDGE ( 'NONE', *, *, #260, .F. ) ;
#217 = DIRECTION ( 'NONE',  ( -3.491481338843133355E-15, 1.224646799147353207E-16, -1.000000000000000000 ) ) ;
#218 = EDGE_CURVE ( 'NONE', #227, #227, #201, .T. ) ;
#219 = ORIENTED_EDGE ( 'NONE', *, *, #48, .F. ) ;
#220 = FACE_OUTER_BOUND ( 'NONE', #252, .T. ) ;
#221 = EDGE_LOOP ( 'NONE', ( #29 ) ) ;
#222 = DIRECTION ( 'NONE',  ( -5.135813185032639159E-31, -1.000000000000000000, -1.445602896647342121E-16 ) ) ;
#223 = CC_DESIGN_APPROVAL ( #53, ( #153 ) ) ;
#224 = DIRECTION ( 'NONE',  ( 0.0000000000000000000, 1.000000000000000000, 0.0000000000000000000 ) ) ;
#225 = DIRECTION ( 'NONE',  ( -3.491481338843133355E-15, 1.224646799147353207E-16, -1.000000000000000000 ) ) ;
#226 = ADVANCED_FACE ( 'NONE', ( #75 ), #255, .T. ) ;
#227 = VERTEX_POINT ( 'NONE', #148 ) ;
#228 = FACE_OUTER_BOUND ( 'NONE', #254, .T. ) ;
#229 = PERSON_AND_ORGANIZATION ( #171, #132 ) ;
#230 = ORIENTED_EDGE ( 'NONE', *, *, #170, .T. ) ;
#231 =( NAMED_UNIT ( * ) PLANE_ANGLE_UNIT ( ) SI_UNIT ( $, .RADIAN. ) );
#232 = AXIS2_PLACEMENT_3D ( 'NONE', #97, #163, #166 ) ;
#233 = FACE_OUTER_BOUND ( 'NONE', #112, .T. ) ;
#234 = APPLICATION_CONTEXT ( 'configuration controlled 3d designs of mechanical parts and assemblies' ) ;
#235 = ORIENTED_EDGE ( 'NONE', *, *, #218, .T. ) ;
#236 = DIRECTION ( 'NONE',  ( 0.0000000000000000000, 1.000000000000000000, 0.0000000000000000000 ) ) ;
#237 = DIRECTION ( 'NONE',  ( 4.275831445896958607E-31, 1.000000000000000000, 1.224646799147353207E-16 ) ) ;
#238 = CYLINDRICAL_SURFACE ( 'NONE', #126, 2.400000000000003908 ) ;
#239 = CARTESIAN_POINT ( 'NONE',  ( 6.982962677686266711E-14, -2.400000000000012790, 20.00000000000000000 ) ) ;
#240 = VERTEX_POINT ( 'NONE', #138 ) ;
#241 = DIRECTION ( 'NONE',  ( 1.510825004591028030E-30, 1.000000000000000000, 4.327174794786742389E-16 ) ) ;
#242 = CC_DESIGN_APPROVAL ( #246, ( #173 ) ) ;
#243 = CALENDAR_DATE ( 2021, 13, 10 ) ;
#244 =( GEOMETRIC_REPRESENTATION_CONTEXT ( 3 ) GLOBAL_UNCERTAINTY_ASSIGNED_CONTEXT ( ( #186 ) ) GLOBAL_UNIT_ASSIGNED_CONTEXT ( ( #105, #231, #214 ) ) REPRESENTATION_CONTEXT ( 'NONE', 'WORKASPACE' ) );
#245 = PERSON_AND_ORGANIZATION_ROLE ( 'classification_officer' ) ;
#246 = APPROVAL ( #6, 'UNSPECIFIED' ) ;
#247 = DATE_AND_TIME ( #41, #67 ) ;
#248 = CARTESIAN_POINT ( 'NONE',  ( 0.0000000000000000000, 0.0000000000000000000, 0.0000000000000000000 ) ) ;
#249 = AXIS2_PLACEMENT_3D ( 'NONE', #142, #258, #224 ) ;
#250 = CONICAL_SURFACE ( 'NONE', #3, 3.500000000000011102, 0.5235987755983003700 ) ;
#251 = ORIENTED_EDGE ( 'NONE', *, *, #120, .F. ) ;
#252 = EDGE_LOOP ( 'NONE', ( #117 ) ) ;
#253 = CARTESIAN_POINT ( 'NONE',  ( 6.982962677686266711E-14, 2.249639673992779843E-32, 20.00000000000000000 ) ) ;
#254 = EDGE_LOOP ( 'NONE', ( #219 ) ) ;
#255 = CONICAL_SURFACE ( 'NONE', #145, 2.999999999999993783, 1.221730476396026388 ) ;
#256 = CC_DESIGN_PERSON_AND_ORGANIZATION_ASSIGNMENT ( #125, #152, ( #153 ) ) ;
#257 = CARTESIAN_POINT ( 'NONE',  ( 9.883398959742883860E-14, -3.000000000000010658, 28.30717967697243154 ) ) ;
#258 = DIRECTION ( 'NONE',  ( -3.491481338843133355E-15, 4.327174794786742882E-16, -1.000000000000000000 ) ) ;
#259 = DIRECTION ( 'NONE',  ( -3.491481338843133355E-15, 4.327174794786742882E-16, -1.000000000000000000 ) ) ;
#260 = EDGE_CURVE ( 'NONE', #127, #127, #82, .T. ) ;
#261 = CIRCLE ( 'NONE', #149, 3.000000000000000444 ) ;
#262 = DIRECTION ( 'NONE',  ( 1.510825004591028030E-30, 1.000000000000000000, 4.327174794786742389E-16 ) ) ;
#263 = CC_DESIGN_PERSON_AND_ORGANIZATION_ASSIGNMENT ( #64, #245, ( #113 ) ) ;
ENDSEC;
END-ISO-10303-21;
