ISO-10303-21;
HEADER;
FILE_DESCRIPTION (( 'STEP AP203' ),
    '1' );
FILE_NAME ('43326.step',
    '2021-10-13T11:36:03',
    ( '' ),
    ( '' ),
    'SwSTEP 2.0',
    'SolidWorks 2019',
    '' );
FILE_SCHEMA (( 'CONFIG_CONTROL_DESIGN' ));
ENDSEC;

DATA;
#1 = EDGE_LOOP ( 'NONE', ( #116 ) ) ;
#2 = ORIENTED_EDGE ( 'NONE', *, *, #112, .T. ) ;
#3 = CARTESIAN_POINT ( 'NONE',  ( 5.935518276033326704E-14, -2.350000000000010303, 17.00000000000000000 ) ) ;
#4 = FACE_OUTER_BOUND ( 'NONE', #78, .T. ) ;
#5 = FACE_OUTER_BOUND ( 'NONE', #32, .T. ) ;
#6 = AXIS2_PLACEMENT_3D ( 'NONE', #250, #39, #121 ) ;
#7 = CARTESIAN_POINT ( 'NONE',  ( 8.554129280165677352E-14, -1.060157824722752006E-14, 24.50000000000000000 ) ) ;
#8 = ADVANCED_FACE ( 'NONE', ( #201 ), #90, .T. ) ;
#9 = CARTESIAN_POINT ( 'NONE',  ( 2.304377683636468267E-13, 1.724723750061124754E-32, 66.00000000000000000 ) ) ;
#10 = CALENDAR_DATE ( 2021, 13, 10 ) ;
#11 = APPROVAL_PERSON_ORGANIZATION ( #86, #135, #198 ) ;
#12 = PERSON ( 'UNSPECIFIED', 'UNSPECIFIED', 'UNSPECIFIED', ('UNSPECIFIED'), ('UNSPECIFIED'), ('UNSPECIFIED') ) ;
#13 = ADVANCED_FACE ( 'NONE', ( #176, #77 ), #218, .T. ) ;
#14 = APPROVAL_STATUS ( 'not_yet_approved' ) ;
#15 = DIRECTION ( 'NONE',  ( -5.135813185032639159E-31, -1.000000000000000000, -1.445602896647342121E-16 ) ) ;
#16 = MANIFOLD_SOLID_BREP ( 'Corps-Déplacer/Copier1[1]', #253 ) ;
#17 = ORIENTED_EDGE ( 'NONE', *, *, #158, .F. ) ;
#18 = CARTESIAN_POINT ( 'NONE',  ( 2.304377683636468267E-13, -8.082668874372532400E-15, 66.00000000000000000 ) ) ;
#19 = EDGE_LOOP ( 'NONE', ( #263 ) ) ;
#20 = FACE_OUTER_BOUND ( 'NONE', #51, .T. ) ;
#21 = DIRECTION ( 'NONE',  ( -3.491481338843133355E-15, 4.327174794786742882E-16, -1.000000000000000000 ) ) ;
#22 = PLANE ( 'NONE',  #75 ) ;
#23 = CARTESIAN_POINT ( 'NONE',  ( 2.304377683636468267E-13, 2.299999999999992717, 66.00000000000000000 ) ) ;
#24 = AXIS2_PLACEMENT_3D ( 'NONE', #157, #242, #54 ) ;
#25 = DIRECTION ( 'NONE',  ( -3.491481338843133355E-15, 4.327174794786742882E-16, -1.000000000000000000 ) ) ;
#26 = CC_DESIGN_PERSON_AND_ORGANIZATION_ASSIGNMENT ( #130, #29, ( #93 ) ) ;
#27 = APPLICATION_PROTOCOL_DEFINITION ( 'international standard', 'config_control_design', 1994, #64 ) ;
#28 = DATE_AND_TIME ( #10, #56 ) ;
#29 = PERSON_AND_ORGANIZATION_ROLE ( 'design_supplier' ) ;
#30 = PERSON_AND_ORGANIZATION ( #12, #151 ) ;
#31 = AXIS2_PLACEMENT_3D ( 'NONE', #99, #185, #170 ) ;
#32 = EDGE_LOOP ( 'NONE', ( #181 ) ) ;
#33 = DIRECTION ( 'NONE',  ( -3.491481338843133355E-15, 4.327174794786742882E-16, -1.000000000000000000 ) ) ;
#34 = ORIENTED_EDGE ( 'NONE', *, *, #210, .T. ) ;
#35 = CONICAL_SURFACE ( 'NONE', #108, 2.300000000000000711, 0.7853981633974437271 ) ;
#36 = CARTESIAN_POINT ( 'NONE',  ( 0.0000000000000000000, 0.0000000000000000000, 0.0000000000000000000 ) ) ;
#37 = CALENDAR_DATE ( 2021, 13, 10 ) ;
#38 = EDGE_LOOP ( 'NONE', ( #162 ) ) ;
#39 = DIRECTION ( 'NONE',  ( -3.491481338843133355E-15, 1.224646799147353207E-16, -1.000000000000000000 ) ) ;
#40 = FACE_OUTER_BOUND ( 'NONE', #141, .T. ) ;
#41 = CIRCLE ( 'NONE', #131, 2.999999999999998224 ) ;
#42 = DIRECTION ( 'NONE',  ( 4.275831445896958607E-31, 1.000000000000000000, 1.224646799147353207E-16 ) ) ;
#43 = VERTEX_POINT ( 'NONE', #23 ) ;
#44 = CARTESIAN_POINT ( 'NONE',  ( 2.279937314264566018E-13, -7.996943598432214956E-15, 65.29999999999999716 ) ) ;
#45 = CALENDAR_DATE ( 2021, 13, 10 ) ;
#46 = CALENDAR_DATE ( 2021, 13, 10 ) ;
#47 = APPROVAL_PERSON_ORGANIZATION ( #254, #59, #211 ) ;
#48 = MECHANICAL_CONTEXT ( 'NONE', #66, 'mechanical' ) ;
#49 = EDGE_CURVE ( 'NONE', #207, #207, #183, .T. ) ;
#50 = CARTESIAN_POINT ( 'NONE',  ( 2.279937314264566018E-13, 2.999999999999992895, 65.29999999999999716 ) ) ;
#51 = EDGE_LOOP ( 'NONE', ( #17 ) ) ;
#52 = DIRECTION ( 'NONE',  ( 0.0000000000000000000, -1.000000000000000000, 0.0000000000000000000 ) ) ;
#53 = SHAPE_DEFINITION_REPRESENTATION ( #215, #143 ) ;
#54 = DIRECTION ( 'NONE',  ( 0.0000000000000000000, 1.000000000000000000, 0.0000000000000000000 ) ) ;
#55 = ORIENTED_EDGE ( 'NONE', *, *, #153, .T. ) ;
#56 = LOCAL_TIME ( 13, 36, 3.000000000000000000, #72 ) ;
#57 = ORIENTED_EDGE ( 'NONE', *, *, #123, .F. ) ;
#58 = DIRECTION ( 'NONE',  ( 0.0000000000000000000, -1.000000000000000000, 0.0000000000000000000 ) ) ;
#59 = APPROVAL ( #234, 'UNSPECIFIED' ) ;
#60 = DIRECTION ( 'NONE',  ( 3.491481338843133355E-15, -4.327174794786742882E-16, 1.000000000000000000 ) ) ;
#61 = DIRECTION ( 'NONE',  ( -4.275831445896958607E-31, -1.000000000000000000, -1.224646799147353207E-16 ) ) ;
#62 = CIRCLE ( 'NONE', #144, 2.350000000000003197 ) ;
#63 = PLANE ( 'NONE',  #31 ) ;
#64 = APPLICATION_CONTEXT ( 'configuration controlled 3d designs of mechanical parts and assemblies' ) ;
#65 = PLANE ( 'NONE',  #204 ) ;
#66 = APPLICATION_CONTEXT ( 'configuration controlled 3d designs of mechanical parts and assemblies' ) ;
#67 = APPROVAL_DATE_TIME ( #171, #154 ) ;
#68 = PERSON_AND_ORGANIZATION_ROLE ( 'creator' ) ;
#69 = DIRECTION ( 'NONE',  ( 1.000000000000000000, 0.0000000000000000000, 0.0000000000000000000 ) ) ;
#70 = PERSON_AND_ORGANIZATION_ROLE ( 'creator' ) ;
#71 = LOCAL_TIME ( 13, 36, 3.000000000000000000, #89 ) ;
#72 = COORDINATED_UNIVERSAL_TIME_OFFSET ( 1, 0, .AHEAD. ) ;
#73 = CC_DESIGN_PERSON_AND_ORGANIZATION_ASSIGNMENT ( #255, #68, ( #93 ) ) ;
#74 = DIRECTION ( 'NONE',  ( -3.491481338843133355E-15, 1.224646799147353207E-16, -1.000000000000000000 ) ) ;
#75 = AXIS2_PLACEMENT_3D ( 'NONE', #206, #190, #61 ) ;
#76 = DIRECTION ( 'NONE',  ( 0.0000000000000000000, 1.000000000000000000, 0.0000000000000000000 ) ) ;
#77 = FACE_OUTER_BOUND ( 'NONE', #1, .T. ) ;
#78 = EDGE_LOOP ( 'NONE', ( #120 ) ) ;
#79 = VERTEX_POINT ( 'NONE', #80 ) ;
#80 = CARTESIAN_POINT ( 'NONE',  ( 8.379555213223520053E-14, 2.349999999999996092, 24.00000000000000000 ) ) ;
#81 = DIRECTION ( 'NONE',  ( -4.917267943116340039E-31, -1.000000000000000000, -1.384087879768727145E-16 ) ) ;
#82 = CIRCLE ( 'NONE', #238, 2.350000000000003197 ) ;
#83 = CARTESIAN_POINT ( 'NONE',  ( 0.0000000000000000000, 0.0000000000000000000, 0.0000000000000000000 ) ) ;
#84 = DIRECTION ( 'NONE',  ( 0.0000000000000000000, 0.0000000000000000000, 1.000000000000000000 ) ) ;
#85 = ADVANCED_FACE ( 'NONE', ( #137, #221 ), #223, .T. ) ;
#86 = PERSON_AND_ORGANIZATION ( #12, #151 ) ;
#87 = ADVANCED_FACE ( 'NONE', ( #92, #177 ), #35, .T. ) ;
#88 = PERSON_AND_ORGANIZATION ( #12, #151 ) ;
#89 = COORDINATED_UNIVERSAL_TIME_OFFSET ( 1, 0, .AHEAD. ) ;
#90 = CONICAL_SURFACE ( 'NONE', #127, 2.999999999999993783, 1.221730476396026388 ) ;
#91 = EDGE_LOOP ( 'NONE', ( #239 ) ) ;
#92 = FACE_OUTER_BOUND ( 'NONE', #196, .T. ) ;
#93 = PRODUCT_DEFINITION_FORMATION_WITH_SPECIFIED_SOURCE ( 'ANY', '', #114, .NOT_KNOWN. ) ;
#94 = CARTESIAN_POINT ( 'NONE',  ( 3.812385842504470444E-15, -1.337204947137066162E-16, 1.091910702798619459 ) ) ;
#95 = EDGE_LOOP ( 'NONE', ( #134 ) ) ;
#96 = MANIFOLD_SOLID_BREP ( 'Corps-Déplacer/Copier1[2]', #236 ) ;
#97 = AXIS2_PLACEMENT_3D ( 'NONE', #83, #21, #191 ) ;
#98 = CC_DESIGN_APPROVAL ( #154, ( #138 ) ) ;
#99 = CARTESIAN_POINT ( 'NONE',  ( 5.935518276033326704E-14, 2.249639673992780117E-32, 17.00000000000000000 ) ) ;
#100 = EDGE_CURVE ( 'NONE', #43, #43, #220, .T. ) ;
#101 = DIRECTION ( 'NONE',  ( -3.491481338843133355E-15, 1.224646799147353207E-16, -1.000000000000000000 ) ) ;
#102 = CARTESIAN_POINT ( 'NONE',  ( 5.935518276033326704E-14, -2.350000000000010303, 17.00000000000000000 ) ) ;
#103 = DIRECTION ( 'NONE',  ( -3.491481338843133355E-15, 4.327174794786742882E-16, -1.000000000000000000 ) ) ;
#104 = LOCAL_TIME ( 13, 36, 3.000000000000000000, #107 ) ;
#105 = CYLINDRICAL_SURFACE ( 'NONE', #97, 2.350000000000003197 ) ;
#106 = APPROVAL_STATUS ( 'not_yet_approved' ) ;
#107 = COORDINATED_UNIVERSAL_TIME_OFFSET ( 1, 0, .AHEAD. ) ;
#108 = AXIS2_PLACEMENT_3D ( 'NONE', #18, #262, #76 ) ;
#109 = EDGE_CURVE ( 'NONE', #79, #79, #261, .T. ) ;
#110 =( LENGTH_UNIT ( ) NAMED_UNIT ( * ) SI_UNIT ( .MILLI., .METRE. ) );
#111 = DATE_TIME_ROLE ( 'creation_date' ) ;
#112 = EDGE_CURVE ( 'NONE', #167, #167, #62, .T. ) ;
#113 = CC_DESIGN_PERSON_AND_ORGANIZATION_ASSIGNMENT ( #132, #252, ( #114 ) ) ;
#114 = PRODUCT ( '43326', '43326', '', ( #48 ) ) ;
#115 = DIRECTION ( 'NONE',  ( 1.510825004591027855E-30, 1.000000000000000000, 4.327174794786742882E-16 ) ) ;
#116 = ORIENTED_EDGE ( 'NONE', *, *, #153, .F. ) ;
#117 = AXIS2_PLACEMENT_3D ( 'NONE', #36, #33, #115 ) ;
#118 = EDGE_LOOP ( 'NONE', ( #197 ) ) ;
#119 = CC_DESIGN_DATE_AND_TIME_ASSIGNMENT ( #256, #111, ( #138 ) ) ;
#120 = ORIENTED_EDGE ( 'NONE', *, *, #49, .F. ) ;
#121 = DIRECTION ( 'NONE',  ( 4.275831445896958607E-31, 1.000000000000000000, 1.224646799147353454E-16 ) ) ;
#122 = FACE_OUTER_BOUND ( 'NONE', #19, .T. ) ;
#123 = EDGE_CURVE ( 'NONE', #188, #188, #232, .T. ) ;
#124 = FACE_OUTER_BOUND ( 'NONE', #244, .T. ) ;
#125 = VERTEX_POINT ( 'NONE', #251 ) ;
#126 = FACE_OUTER_BOUND ( 'NONE', #91, .T. ) ;
#127 = AXIS2_PLACEMENT_3D ( 'NONE', #94, #219, #15 ) ;
#128 = VERTEX_POINT ( 'NONE', #50 ) ;
#129 = CALENDAR_DATE ( 2021, 13, 10 ) ;
#130 = PERSON_AND_ORGANIZATION ( #12, #151 ) ;
#131 = AXIS2_PLACEMENT_3D ( 'NONE', #163, #60, #58 ) ;
#132 = PERSON_AND_ORGANIZATION ( #12, #151 ) ;
#133 = EDGE_LOOP ( 'NONE', ( #182 ) ) ;
#134 = ORIENTED_EDGE ( 'NONE', *, *, #112, .F. ) ;
#135 = APPROVAL ( #14, 'UNSPECIFIED' ) ;
#136 = CARTESIAN_POINT ( 'NONE',  ( 8.379555213223520053E-14, -1.038521950748818292E-14, 24.00000000000000000 ) ) ;
#137 = FACE_OUTER_BOUND ( 'NONE', #118, .T. ) ;
#138 = PRODUCT_DEFINITION ( 'UNKNOWN', '', #93, #245 ) ;
#139 = SECURITY_CLASSIFICATION ( '', '', #150 ) ;
#140 = COORDINATED_UNIVERSAL_TIME_OFFSET ( 1, 0, .AHEAD. ) ;
#141 = EDGE_LOOP ( 'NONE', ( #222 ) ) ;
#142 = DIRECTION ( 'NONE',  ( 0.0000000000000000000, 1.000000000000000000, 0.0000000000000000000 ) ) ;
#143 = ADVANCED_BREP_SHAPE_REPRESENTATION ( '43326', ( #16, #96, #175 ), #200 ) ;
#144 = AXIS2_PLACEMENT_3D ( 'NONE', #247, #145, #248 ) ;
#145 = DIRECTION ( 'NONE',  ( -3.491481338843133355E-15, 1.224646799147353207E-16, -1.000000000000000000 ) ) ;
#146 = CARTESIAN_POINT ( 'NONE',  ( 8.554129280165677352E-14, 2.483974596215559494, 24.50000000000000000 ) ) ;
#147 = VERTEX_POINT ( 'NONE', #231 ) ;
#148 = PRODUCT_RELATED_PRODUCT_CATEGORY ( 'detail', '', ( #114 ) ) ;
#149 =( NAMED_UNIT ( * ) PLANE_ANGLE_UNIT ( ) SI_UNIT ( $, .RADIAN. ) );
#150 = SECURITY_CLASSIFICATION_LEVEL ( 'unclassified' ) ;
#151 = ORGANIZATION ( 'UNSPECIFIED', 'UNSPECIFIED', '' ) ;
#152 = DATE_TIME_ROLE ( 'classification_date' ) ;
#153 = EDGE_CURVE ( 'NONE', #125, #125, #41, .T. ) ;
#154 = APPROVAL ( #106, 'UNSPECIFIED' ) ;
#155 = AXIS2_PLACEMENT_3D ( 'NONE', #260, #180, #160 ) ;
#156 = CC_DESIGN_APPROVAL ( #135, ( #139 ) ) ;
#157 = CARTESIAN_POINT ( 'NONE',  ( 2.304377683636468267E-13, -8.082668874372532400E-15, 66.00000000000000000 ) ) ;
#158 = EDGE_CURVE ( 'NONE', #147, #147, #82, .T. ) ;
#159 = APPROVAL_DATE_TIME ( #161, #135 ) ;
#160 = DIRECTION ( 'NONE',  ( 0.0000000000000000000, -1.000000000000000000, 0.0000000000000000000 ) ) ;
#161 = DATE_AND_TIME ( #37, #240 ) ;
#162 = ORIENTED_EDGE ( 'NONE', *, *, #100, .T. ) ;
#163 = CARTESIAN_POINT ( 'NONE',  ( 8.866191673452717634E-14, -1.098833343552245014E-14, 25.39378221735087493 ) ) ;
#164 = ADVANCED_FACE ( 'NONE', ( #126, #40 ), #228, .F. ) ;
#165 = CYLINDRICAL_SURFACE ( 'NONE', #6, 2.999999999999998224 ) ;
#166 = CC_DESIGN_DATE_AND_TIME_ASSIGNMENT ( #28, #152, ( #139 ) ) ;
#167 = VERTEX_POINT ( 'NONE', #102 ) ;
#168 = LOCAL_TIME ( 13, 36, 3.000000000000000000, #235 ) ;
#169 = DIRECTION ( 'NONE',  ( -3.491481338843133355E-15, 1.224646799147353207E-16, -1.000000000000000000 ) ) ;
#170 = DIRECTION ( 'NONE',  ( -4.275831445896958607E-31, -1.000000000000000000, -1.224646799147353207E-16 ) ) ;
#171 = DATE_AND_TIME ( #129, #168 ) ;
#172 = AXIS2_PLACEMENT_3D ( 'NONE', #243, #74, #52 ) ;
#173 = APPROVAL_ROLE ( '' ) ;
#174 = PERSON_AND_ORGANIZATION ( #12, #151 ) ;
#175 = AXIS2_PLACEMENT_3D ( 'NONE', #237, #84, #69 ) ;
#176 = FACE_BOUND ( 'NONE', #199, .T. ) ;
#177 = FACE_BOUND ( 'NONE', #38, .T. ) ;
#178 = CIRCLE ( 'NONE', #193, 3.000000000000000444 ) ;
#179 = ADVANCED_FACE ( 'NONE', ( #122, #20 ), #105, .T. ) ;
#180 = DIRECTION ( 'NONE',  ( 3.491481338843133355E-15, -4.327174794786742882E-16, 1.000000000000000000 ) ) ;
#181 = ORIENTED_EDGE ( 'NONE', *, *, #100, .F. ) ;
#182 = ORIENTED_EDGE ( 'NONE', *, *, #158, .T. ) ;
#183 = CIRCLE ( 'NONE', #172, 2.350000000000003197 ) ;
#184 = AXIS2_PLACEMENT_3D ( 'NONE', #225, #25, #229 ) ;
#185 = DIRECTION ( 'NONE',  ( 3.491481338843133355E-15, -1.224646799147353207E-16, 1.000000000000000000 ) ) ;
#186 = ADVANCED_FACE ( 'NONE', ( #5 ), #65, .F. ) ;
#187 = DIRECTION ( 'NONE',  ( 0.0000000000000000000, 1.000000000000000000, 0.0000000000000000000 ) ) ;
#188 = VERTEX_POINT ( 'NONE', #146 ) ;
#189 = AXIS2_PLACEMENT_3D ( 'NONE', #7, #103, #142 ) ;
#190 = DIRECTION ( 'NONE',  ( 3.491481338843133355E-15, -1.224646799147353207E-16, 1.000000000000000000 ) ) ;
#191 = DIRECTION ( 'NONE',  ( 1.510825004591027855E-30, 1.000000000000000000, 4.327174794786742882E-16 ) ) ;
#192 = DATE_AND_TIME ( #45, #104 ) ;
#193 = AXIS2_PLACEMENT_3D ( 'NONE', #44, #101, #187 ) ;
#194 = APPLICATION_PROTOCOL_DEFINITION ( 'international standard', 'config_control_design', 1994, #66 ) ;
#195 = CC_DESIGN_PERSON_AND_ORGANIZATION_ASSIGNMENT ( #174, #257, ( #139 ) ) ;
#196 = EDGE_LOOP ( 'NONE', ( #224 ) ) ;
#197 = ORIENTED_EDGE ( 'NONE', *, *, #109, .T. ) ;
#198 = APPROVAL_ROLE ( '' ) ;
#199 = EDGE_LOOP ( 'NONE', ( #57 ) ) ;
#200 =( GEOMETRIC_REPRESENTATION_CONTEXT ( 3 ) GLOBAL_UNCERTAINTY_ASSIGNED_CONTEXT ( ( #214 ) ) GLOBAL_UNIT_ASSIGNED_CONTEXT ( ( #110, #149, #217 ) ) REPRESENTATION_CONTEXT ( 'NONE', 'WORKASPACE' ) );
#201 = FACE_OUTER_BOUND ( 'NONE', #133, .T. ) ;
#202 = EDGE_LOOP ( 'NONE', ( #55 ) ) ;
#203 = FACE_OUTER_BOUND ( 'NONE', #241, .T. ) ;
#204 = AXIS2_PLACEMENT_3D ( 'NONE', #9, #169, #42 ) ;
#205 = DIRECTION ( 'NONE',  ( 0.0000000000000000000, 1.000000000000000000, 0.0000000000000000000 ) ) ;
#206 = CARTESIAN_POINT ( 'NONE',  ( 5.935518276033326704E-14, 2.249639673992780117E-32, 17.00000000000000000 ) ) ;
#207 = VERTEX_POINT ( 'NONE', #3 ) ;
#208 = CC_DESIGN_SECURITY_CLASSIFICATION ( #139, ( #93 ) ) ;
#209 = CARTESIAN_POINT ( 'NONE',  ( 2.986368909961844621E-15, -1.047477208590705291E-16, 0.8553300505255879704 ) ) ;
#210 = EDGE_CURVE ( 'NONE', #128, #128, #178, .T. ) ;
#211 = APPROVAL_ROLE ( '' ) ;
#212 = APPROVAL_DATE_TIME ( #192, #59 ) ;
#213 = APPROVAL_PERSON_ORGANIZATION ( #88, #154, #173 ) ;
#214 = UNCERTAINTY_MEASURE_WITH_UNIT (LENGTH_MEASURE( 1.000000000000000082E-05 ), #110, 'distance_accuracy_value', 'NONE');
#215 = PRODUCT_DEFINITION_SHAPE ( 'NONE', 'NONE',  #138 ) ;
#216 = CC_DESIGN_PERSON_AND_ORGANIZATION_ASSIGNMENT ( #30, #70, ( #138 ) ) ;
#217 =( NAMED_UNIT ( * ) SI_UNIT ( $, .STERADIAN. ) SOLID_ANGLE_UNIT ( ) );
#218 = CONICAL_SURFACE ( 'NONE', #155, 3.500000000000009770, 0.5235987755983007030 ) ;
#219 = DIRECTION ( 'NONE',  ( 3.491481338843133355E-15, -1.224646799147353207E-16, 1.000000000000000000 ) ) ;
#220 = CIRCLE ( 'NONE', #24, 2.300000000000000711 ) ;
#221 = FACE_OUTER_BOUND ( 'NONE', #95, .T. ) ;
#222 = ORIENTED_EDGE ( 'NONE', *, *, #123, .T. ) ;
#223 = CYLINDRICAL_SURFACE ( 'NONE', #117, 2.350000000000003197 ) ;
#224 = ORIENTED_EDGE ( 'NONE', *, *, #210, .F. ) ;
#225 = CARTESIAN_POINT ( 'NONE',  ( 8.379555213223520053E-14, -1.040834085586084257E-14, 24.00000000000000000 ) ) ;
#226 = DIRECTION ( 'NONE',  ( -3.491481338843133355E-15, 4.327174794786742882E-16, -1.000000000000000000 ) ) ;
#227 = ADVANCED_FACE ( 'NONE', ( #230, #124 ), #165, .T. ) ;
#228 = TOROIDAL_SURFACE ( 'NONE', #184, 3.350000000000007638, 0.9999999999999991118 ) ;
#229 = DIRECTION ( 'NONE',  ( 1.559662327631504917E-30, 1.000000000000000000, 4.327174794786742882E-16 ) ) ;
#230 = FACE_OUTER_BOUND ( 'NONE', #202, .T. ) ;
#231 = CARTESIAN_POINT ( 'NONE',  ( 2.986368909961843438E-15, -2.350000000000003197, 0.8553300505255876374 ) ) ;
#232 = CIRCLE ( 'NONE', #189, 2.483974596215569708 ) ;
#233 = ADVANCED_FACE ( 'NONE', ( #203 ), #63, .F. ) ;
#234 = APPROVAL_STATUS ( 'not_yet_approved' ) ;
#235 = COORDINATED_UNIVERSAL_TIME_OFFSET ( 1, 0, .AHEAD. ) ;
#236 = CLOSED_SHELL ( 'NONE', ( #8, #179, #259 ) ) ;
#237 = CARTESIAN_POINT ( 'NONE',  ( 0.0000000000000000000, 0.0000000000000000000, 0.0000000000000000000 ) ) ;
#238 = AXIS2_PLACEMENT_3D ( 'NONE', #209, #246, #81 ) ;
#239 = ORIENTED_EDGE ( 'NONE', *, *, #109, .F. ) ;
#240 = LOCAL_TIME ( 13, 36, 3.000000000000000000, #140 ) ;
#241 = EDGE_LOOP ( 'NONE', ( #2 ) ) ;
#242 = DIRECTION ( 'NONE',  ( -3.491481338843133355E-15, 1.224646799147353207E-16, -1.000000000000000000 ) ) ;
#243 = CARTESIAN_POINT ( 'NONE',  ( 5.935518276033326704E-14, -7.356197151137462899E-15, 17.00000000000000000 ) ) ;
#244 = EDGE_LOOP ( 'NONE', ( #34 ) ) ;
#245 = DESIGN_CONTEXT ( 'detailed design', #64, 'design' ) ;
#246 = DIRECTION ( 'NONE',  ( -3.491481338843133355E-15, 1.224646799147353207E-16, -1.000000000000000000 ) ) ;
#247 = CARTESIAN_POINT ( 'NONE',  ( 5.935518276033326704E-14, -7.356197151137462899E-15, 17.00000000000000000 ) ) ;
#248 = DIRECTION ( 'NONE',  ( 0.0000000000000000000, -1.000000000000000000, 0.0000000000000000000 ) ) ;
#249 = AXIS2_PLACEMENT_3D ( 'NONE', #136, #226, #205 ) ;
#250 = CARTESIAN_POINT ( 'NONE',  ( 0.0000000000000000000, 0.0000000000000000000, 0.0000000000000000000 ) ) ;
#251 = CARTESIAN_POINT ( 'NONE',  ( 8.866191673452717634E-14, -3.000000000000009326, 25.39378221735087493 ) ) ;
#252 = PERSON_AND_ORGANIZATION_ROLE ( 'design_owner' ) ;
#253 = CLOSED_SHELL ( 'NONE', ( #227, #87, #186, #85, #13, #164, #233 ) ) ;
#254 = PERSON_AND_ORGANIZATION ( #12, #151 ) ;
#255 = PERSON_AND_ORGANIZATION ( #12, #151 ) ;
#256 = DATE_AND_TIME ( #46, #71 ) ;
#257 = PERSON_AND_ORGANIZATION_ROLE ( 'classification_officer' ) ;
#258 = CC_DESIGN_APPROVAL ( #59, ( #93 ) ) ;
#259 = ADVANCED_FACE ( 'NONE', ( #4 ), #22, .T. ) ;
#260 = CARTESIAN_POINT ( 'NONE',  ( 9.168562827080468067E-14, -1.136307776541256050E-14, 26.25980762113532663 ) ) ;
#261 = CIRCLE ( 'NONE', #249, 2.350000000000006750 ) ;
#262 = DIRECTION ( 'NONE',  ( -3.491481338843133355E-15, 1.224646799147353207E-16, -1.000000000000000000 ) ) ;
#263 = ORIENTED_EDGE ( 'NONE', *, *, #49, .T. ) ;
ENDSEC;
END-ISO-10303-21;
