ISO-10303-21;
HEADER;
FILE_DESCRIPTION (( 'STEP AP203' ),
    '1' );
FILE_NAME ('43325.step',
    '2021-10-13T11:36:03',
    ( '' ),
    ( '' ),
    'SwSTEP 2.0',
    'SolidWorks 2019',
    '' );
FILE_SCHEMA (( 'CONFIG_CONTROL_DESIGN' ));
ENDSEC;

DATA;
#1 = APPLICATION_PROTOCOL_DEFINITION ( 'international standard', 'config_control_design', 1994, #78 ) ;
#2 = AXIS2_PLACEMENT_3D ( 'NONE', #167, #110, #68 ) ;
#3 = PLANE ( 'NONE',  #132 ) ;
#4 = DIRECTION ( 'NONE',  ( -5.135813185032639159E-31, -1.000000000000000000, -1.445602896647342121E-16 ) ) ;
#5 = CARTESIAN_POINT ( 'NONE',  ( 5.935518276033326704E-14, 2.249639673992780117E-32, 17.00000000000000000 ) ) ;
#6 = CC_DESIGN_PERSON_AND_ORGANIZATION_ASSIGNMENT ( #102, #20, ( #224 ) ) ;
#7 = FACE_OUTER_BOUND ( 'NONE', #201, .T. ) ;
#8 = DIRECTION ( 'NONE',  ( 0.0000000000000000000, 1.000000000000000000, 0.0000000000000000000 ) ) ;
#9 = DIRECTION ( 'NONE',  ( 3.491481338843133355E-15, -1.224646799147353207E-16, 1.000000000000000000 ) ) ;
#10 = VERTEX_POINT ( 'NONE', #255 ) ;
#11 = ORIENTED_EDGE ( 'NONE', *, *, #236, .F. ) ;
#12 = MANIFOLD_SOLID_BREP ( 'Corps-Déplacer/Copier1[1]', #17 ) ;
#13 = CARTESIAN_POINT ( 'NONE',  ( 2.279937314264566018E-13, -7.996943598432214956E-15, 65.29999999999999716 ) ) ;
#14 =( LENGTH_UNIT ( ) NAMED_UNIT ( * ) SI_UNIT ( .MILLI., .METRE. ) );
#15 = APPROVAL_ROLE ( '' ) ;
#16 = APPROVAL_ROLE ( '' ) ;
#17 = CLOSED_SHELL ( 'NONE', ( #98, #245, #26, #82, #238, #121, #210 ) ) ;
#18 = AXIS2_PLACEMENT_3D ( 'NONE', #198, #218, #115 ) ;
#19 = COORDINATED_UNIVERSAL_TIME_OFFSET ( 1, 0, .AHEAD. ) ;
#20 = PERSON_AND_ORGANIZATION_ROLE ( 'creator' ) ;
#21 = ADVANCED_FACE ( 'NONE', ( #25 ), #192, .T. ) ;
#22 = DATE_AND_TIME ( #204, #215 ) ;
#23 = APPROVAL_PERSON_ORGANIZATION ( #122, #180, #16 ) ;
#24 = ORIENTED_EDGE ( 'NONE', *, *, #207, .T. ) ;
#25 = FACE_OUTER_BOUND ( 'NONE', #72, .T. ) ;
#26 = ADVANCED_FACE ( 'NONE', ( #7 ), #3, .F. ) ;
#27 = ORIENTED_EDGE ( 'NONE', *, *, #191, .T. ) ;
#28 = EDGE_LOOP ( 'NONE', ( #27 ) ) ;
#29 = FACE_OUTER_BOUND ( 'NONE', #28, .T. ) ;
#30 = ADVANCED_FACE ( 'NONE', ( #70 ), #185, .T. ) ;
#31 = DIRECTION ( 'NONE',  ( -3.491481338843133355E-15, 1.224646799147353207E-16, -1.000000000000000000 ) ) ;
#32 =( NAMED_UNIT ( * ) PLANE_ANGLE_UNIT ( ) SI_UNIT ( $, .RADIAN. ) );
#33 = ORGANIZATION ( 'UNSPECIFIED', 'UNSPECIFIED', '' ) ;
#34 = DIRECTION ( 'NONE',  ( 0.0000000000000000000, -1.000000000000000000, 0.0000000000000000000 ) ) ;
#35 = DIRECTION ( 'NONE',  ( 0.0000000000000000000, 1.000000000000000000, 0.0000000000000000000 ) ) ;
#36 = DIRECTION ( 'NONE',  ( -3.491481338843133355E-15, 4.327174794786742882E-16, -1.000000000000000000 ) ) ;
#37 = AXIS2_PLACEMENT_3D ( 'NONE', #213, #131, #190 ) ;
#38 = APPROVAL_PERSON_ORGANIZATION ( #42, #94, #15 ) ;
#39 = EDGE_CURVE ( 'NONE', #193, #193, #188, .T. ) ;
#40 = APPROVAL_STATUS ( 'not_yet_approved' ) ;
#41 = CC_DESIGN_APPROVAL ( #180, ( #227 ) ) ;
#42 = PERSON_AND_ORGANIZATION ( #49, #33 ) ;
#43 = ORIENTED_EDGE ( 'NONE', *, *, #207, .F. ) ;
#44 = PERSON_AND_ORGANIZATION_ROLE ( 'design_owner' ) ;
#45 = CONICAL_SURFACE ( 'NONE', #18, 2.300000000000000711, 0.7853981633974437271 ) ;
#46 = FACE_OUTER_BOUND ( 'NONE', #50, .T. ) ;
#47 = CC_DESIGN_PERSON_AND_ORGANIZATION_ASSIGNMENT ( #120, #100, ( #224 ) ) ;
#48 = DIRECTION ( 'NONE',  ( 0.0000000000000000000, -1.000000000000000000, 0.0000000000000000000 ) ) ;
#49 = PERSON ( 'UNSPECIFIED', 'UNSPECIFIED', 'UNSPECIFIED', ('UNSPECIFIED'), ('UNSPECIFIED'), ('UNSPECIFIED') ) ;
#50 = EDGE_LOOP ( 'NONE', ( #162 ) ) ;
#51 = AXIS2_PLACEMENT_3D ( 'NONE', #52, #134, #4 ) ;
#52 = CARTESIAN_POINT ( 'NONE',  ( 3.812385842504470444E-15, -1.337204947137066162E-16, 1.091910702798619459 ) ) ;
#53 =( GEOMETRIC_REPRESENTATION_CONTEXT ( 3 ) GLOBAL_UNCERTAINTY_ASSIGNED_CONTEXT ( ( #199 ) ) GLOBAL_UNIT_ASSIGNED_CONTEXT ( ( #14, #32, #95 ) ) REPRESENTATION_CONTEXT ( 'NONE', 'WORKASPACE' ) );
#54 = DIRECTION ( 'NONE',  ( 3.491481338843133355E-15, -4.327174794786742882E-16, 1.000000000000000000 ) ) ;
#55 = CARTESIAN_POINT ( 'NONE',  ( 5.935518276033326704E-14, -2.300000000000010925, 17.00000000000000000 ) ) ;
#56 = FACE_OUTER_BOUND ( 'NONE', #228, .T. ) ;
#57 = AXIS2_PLACEMENT_3D ( 'NONE', #163, #109, #8 ) ;
#58 = EDGE_CURVE ( 'NONE', #153, #153, #86, .T. ) ;
#59 = CARTESIAN_POINT ( 'NONE',  ( 2.279937314264566018E-13, 2.999999999999992895, 65.29999999999999716 ) ) ;
#60 = DIRECTION ( 'NONE',  ( 1.510825004591028030E-30, 1.000000000000000000, 4.327174794786742882E-16 ) ) ;
#61 = CALENDAR_DATE ( 2021, 13, 10 ) ;
#62 = AXIS2_PLACEMENT_3D ( 'NONE', #139, #54, #34 ) ;
#63 = DATE_TIME_ROLE ( 'classification_date' ) ;
#64 = PERSON_AND_ORGANIZATION ( #49, #33 ) ;
#65 = CARTESIAN_POINT ( 'NONE',  ( 0.0000000000000000000, 0.0000000000000000000, 0.0000000000000000000 ) ) ;
#66 = AXIS2_PLACEMENT_3D ( 'NONE', #258, #99, #60 ) ;
#67 = PERSON_AND_ORGANIZATION ( #49, #33 ) ;
#68 = DIRECTION ( 'NONE',  ( 4.275831445896958607E-31, 1.000000000000000000, 1.224646799147353454E-16 ) ) ;
#69 = CC_DESIGN_SECURITY_CLASSIFICATION ( #206, ( #224 ) ) ;
#70 = FACE_OUTER_BOUND ( 'NONE', #151, .T. ) ;
#71 = FACE_OUTER_BOUND ( 'NONE', #177, .T. ) ;
#72 = EDGE_LOOP ( 'NONE', ( #91 ) ) ;
#73 = AXIS2_PLACEMENT_3D ( 'NONE', #96, #9, #235 ) ;
#74 = EDGE_LOOP ( 'NONE', ( #11 ) ) ;
#75 = VERTEX_POINT ( 'NONE', #178 ) ;
#76 = FACE_OUTER_BOUND ( 'NONE', #161, .T. ) ;
#77 = CC_DESIGN_PERSON_AND_ORGANIZATION_ASSIGNMENT ( #85, #119, ( #206 ) ) ;
#78 = APPLICATION_CONTEXT ( 'configuration controlled 3d designs of mechanical parts and assemblies' ) ;
#79 = VERTEX_POINT ( 'NONE', #83 ) ;
#80 = AXIS2_PLACEMENT_3D ( 'NONE', #169, #130, #186 ) ;
#81 = DIRECTION ( 'NONE',  ( 0.0000000000000000000, -1.000000000000000000, 0.0000000000000000000 ) ) ;
#82 = ADVANCED_FACE ( 'NONE', ( #71, #247 ), #127, .T. ) ;
#83 = CARTESIAN_POINT ( 'NONE',  ( 5.935518276033326704E-14, -2.300000000000010925, 17.00000000000000000 ) ) ;
#84 = APPROVAL_DATE_TIME ( #103, #196 ) ;
#85 = PERSON_AND_ORGANIZATION ( #49, #33 ) ;
#86 = CIRCLE ( 'NONE', #57, 2.300000000000000711 ) ;
#87 = CC_DESIGN_DATE_AND_TIME_ASSIGNMENT ( #223, #220, ( #227 ) ) ;
#88 = ORIENTED_EDGE ( 'NONE', *, *, #39, .F. ) ;
#89 = ORIENTED_EDGE ( 'NONE', *, *, #148, .T. ) ;
#90 = CLOSED_SHELL ( 'NONE', ( #30, #168, #21 ) ) ;
#91 = ORIENTED_EDGE ( 'NONE', *, *, #263, .F. ) ;
#92 = FACE_OUTER_BOUND ( 'NONE', #209, .T. ) ;
#93 = CARTESIAN_POINT ( 'NONE',  ( 8.554129280165677352E-14, -1.060157824722752006E-14, 24.50000000000000000 ) ) ;
#94 = APPROVAL ( #126, 'UNSPECIFIED' ) ;
#95 =( NAMED_UNIT ( * ) SI_UNIT ( $, .STERADIAN. ) SOLID_ANGLE_UNIT ( ) );
#96 = CARTESIAN_POINT ( 'NONE',  ( 5.935518276033326704E-14, 2.249639673992780117E-32, 17.00000000000000000 ) ) ;
#97 = DIRECTION ( 'NONE',  ( -3.491481338843133355E-15, 4.327174794786742882E-16, -1.000000000000000000 ) ) ;
#98 = ADVANCED_FACE ( 'NONE', ( #29, #105 ), #230, .T. ) ;
#99 = DIRECTION ( 'NONE',  ( -3.491481338843133355E-15, 4.327174794786742882E-16, -1.000000000000000000 ) ) ;
#100 = PERSON_AND_ORGANIZATION_ROLE ( 'design_supplier' ) ;
#101 = DATE_AND_TIME ( #147, #137 ) ;
#102 = PERSON_AND_ORGANIZATION ( #49, #33 ) ;
#103 = DATE_AND_TIME ( #260, #165 ) ;
#104 = EDGE_LOOP ( 'NONE', ( #211 ) ) ;
#105 = FACE_OUTER_BOUND ( 'NONE', #152, .T. ) ;
#106 = ADVANCED_BREP_SHAPE_REPRESENTATION ( '43325', ( #12, #194, #261 ), #53 ) ;
#107 = ORIENTED_EDGE ( 'NONE', *, *, #39, .T. ) ;
#108 = LOCAL_TIME ( 13, 36, 2.000000000000000000, #226 ) ;
#109 = DIRECTION ( 'NONE',  ( -3.491481338843133355E-15, 1.224646799147353207E-16, -1.000000000000000000 ) ) ;
#110 = DIRECTION ( 'NONE',  ( -3.491481338843133355E-15, 1.224646799147353207E-16, -1.000000000000000000 ) ) ;
#111 = PLANE ( 'NONE',  #73 ) ;
#112 = CC_DESIGN_PERSON_AND_ORGANIZATION_ASSIGNMENT ( #67, #44, ( #113 ) ) ;
#113 = PRODUCT ( '43325', '43325', '', ( #184 ) ) ;
#114 = AXIS2_PLACEMENT_3D ( 'NONE', #117, #216, #81 ) ;
#115 = DIRECTION ( 'NONE',  ( 0.0000000000000000000, 1.000000000000000000, 0.0000000000000000000 ) ) ;
#116 = FACE_BOUND ( 'NONE', #74, .T. ) ;
#117 = CARTESIAN_POINT ( 'NONE',  ( 9.198799942443243110E-14, -1.140055219840157122E-14, 26.34641016151377002 ) ) ;
#118 = FACE_OUTER_BOUND ( 'NONE', #104, .T. ) ;
#119 = PERSON_AND_ORGANIZATION_ROLE ( 'classification_officer' ) ;
#120 = PERSON_AND_ORGANIZATION ( #49, #33 ) ;
#121 = ADVANCED_FACE ( 'NONE', ( #92, #46 ), #254, .F. ) ;
#122 = PERSON_AND_ORGANIZATION ( #49, #33 ) ;
#123 = AXIS2_PLACEMENT_3D ( 'NONE', #239, #31, #200 ) ;
#124 = COORDINATED_UNIVERSAL_TIME_OFFSET ( 1, 0, .AHEAD. ) ;
#125 = ORIENTED_EDGE ( 'NONE', *, *, #143, .F. ) ;
#126 = APPROVAL_STATUS ( 'not_yet_approved' ) ;
#127 = CYLINDRICAL_SURFACE ( 'NONE', #37, 2.300000000000003375 ) ;
#128 = CIRCLE ( 'NONE', #155, 2.433974596215569886 ) ;
#129 = DIRECTION ( 'NONE',  ( -3.491481338843133355E-15, 1.224646799147353207E-16, -1.000000000000000000 ) ) ;
#130 = DIRECTION ( 'NONE',  ( -3.491481338843133355E-15, 4.327174794786742882E-16, -1.000000000000000000 ) ) ;
#131 = DIRECTION ( 'NONE',  ( -3.491481338843133355E-15, 4.327174794786742882E-16, -1.000000000000000000 ) ) ;
#132 = AXIS2_PLACEMENT_3D ( 'NONE', #166, #252, #234 ) ;
#133 = CC_DESIGN_APPROVAL ( #196, ( #206 ) ) ;
#134 = DIRECTION ( 'NONE',  ( 3.491481338843133355E-15, -1.224646799147353207E-16, 1.000000000000000000 ) ) ;
#135 = DIRECTION ( 'NONE',  ( 0.0000000000000000000, 1.000000000000000000, 0.0000000000000000000 ) ) ;
#136 = CC_DESIGN_PERSON_AND_ORGANIZATION_ASSIGNMENT ( #64, #243, ( #227 ) ) ;
#137 = LOCAL_TIME ( 13, 36, 2.000000000000000000, #158 ) ;
#138 = DIRECTION ( 'NONE',  ( 0.0000000000000000000, 1.000000000000000000, 0.0000000000000000000 ) ) ;
#139 = CARTESIAN_POINT ( 'NONE',  ( 8.896428788815492678E-14, -1.102580786851146086E-14, 25.48038475772931832 ) ) ;
#140 = SHAPE_DEFINITION_REPRESENTATION ( #256, #106 ) ;
#141 = APPROVAL_ROLE ( '' ) ;
#142 = ORIENTED_EDGE ( 'NONE', *, *, #191, .F. ) ;
#143 = EDGE_CURVE ( 'NONE', #197, #197, #189, .T. ) ;
#144 = APPROVAL_DATE_TIME ( #22, #94 ) ;
#145 = APPROVAL_DATE_TIME ( #101, #180 ) ;
#146 = CIRCLE ( 'NONE', #183, 2.300000000000006928 ) ;
#147 = CALENDAR_DATE ( 2021, 13, 10 ) ;
#148 = EDGE_CURVE ( 'NONE', #259, #259, #146, .T. ) ;
#149 = CARTESIAN_POINT ( 'NONE',  ( 5.935518276033326704E-14, -7.356197151137462899E-15, 17.00000000000000000 ) ) ;
#150 = DIRECTION ( 'NONE',  ( -3.491481338843133355E-15, 1.224646799147353207E-16, -1.000000000000000000 ) ) ;
#151 = EDGE_LOOP ( 'NONE', ( #107 ) ) ;
#152 = EDGE_LOOP ( 'NONE', ( #24 ) ) ;
#153 = VERTEX_POINT ( 'NONE', #173 ) ;
#154 = CYLINDRICAL_SURFACE ( 'NONE', #66, 2.300000000000003375 ) ;
#155 = AXIS2_PLACEMENT_3D ( 'NONE', #93, #36, #135 ) ;
#156 = APPLICATION_CONTEXT ( 'configuration controlled 3d designs of mechanical parts and assemblies' ) ;
#157 = FACE_BOUND ( 'NONE', #187, .T. ) ;
#158 = COORDINATED_UNIVERSAL_TIME_OFFSET ( 1, 0, .AHEAD. ) ;
#159 = LOCAL_TIME ( 13, 36, 2.000000000000000000, #241 ) ;
#160 = APPLICATION_PROTOCOL_DEFINITION ( 'international standard', 'config_control_design', 1994, #156 ) ;
#161 = EDGE_LOOP ( 'NONE', ( #43 ) ) ;
#162 = ORIENTED_EDGE ( 'NONE', *, *, #236, .T. ) ;
#163 = CARTESIAN_POINT ( 'NONE',  ( 2.304377683636468267E-13, -8.082668874372532400E-15, 66.00000000000000000 ) ) ;
#164 = EDGE_LOOP ( 'NONE', ( #142 ) ) ;
#165 = LOCAL_TIME ( 13, 36, 2.000000000000000000, #19 ) ;
#166 = CARTESIAN_POINT ( 'NONE',  ( 2.304377683636468267E-13, 1.724723750061124754E-32, 66.00000000000000000 ) ) ;
#167 = CARTESIAN_POINT ( 'NONE',  ( 0.0000000000000000000, 0.0000000000000000000, 0.0000000000000000000 ) ) ;
#168 = ADVANCED_FACE ( 'NONE', ( #257, #56 ), #154, .T. ) ;
#169 = CARTESIAN_POINT ( 'NONE',  ( 8.379555213223520053E-14, -1.040834085586084257E-14, 24.00000000000000000 ) ) ;
#170 = CC_DESIGN_APPROVAL ( #94, ( #224 ) ) ;
#171 = CARTESIAN_POINT ( 'NONE',  ( 8.379555213223520053E-14, 2.299999999999996270, 24.00000000000000000 ) ) ;
#172 = DIRECTION ( 'NONE',  ( -3.491481338843133355E-15, 1.224646799147353207E-16, -1.000000000000000000 ) ) ;
#173 = CARTESIAN_POINT ( 'NONE',  ( 2.304377683636468267E-13, 2.299999999999992717, 66.00000000000000000 ) ) ;
#174 = ORIENTED_EDGE ( 'NONE', *, *, #58, .T. ) ;
#175 = CIRCLE ( 'NONE', #62, 2.999999999999998224 ) ;
#176 = FACE_OUTER_BOUND ( 'NONE', #164, .T. ) ;
#177 = EDGE_LOOP ( 'NONE', ( #89 ) ) ;
#178 = CARTESIAN_POINT ( 'NONE',  ( 8.554129280165677352E-14, 2.433974596215559227, 24.50000000000000000 ) ) ;
#179 = DESIGN_CONTEXT ( 'detailed design', #156, 'design' ) ;
#180 = APPROVAL ( #219, 'UNSPECIFIED' ) ;
#181 = PERSON_AND_ORGANIZATION ( #49, #33 ) ;
#182 = CALENDAR_DATE ( 2021, 13, 10 ) ;
#183 = AXIS2_PLACEMENT_3D ( 'NONE', #214, #97, #138 ) ;
#184 = MECHANICAL_CONTEXT ( 'NONE', #78, 'mechanical' ) ;
#185 = CONICAL_SURFACE ( 'NONE', #51, 2.999999999999993783, 1.221730476396026388 ) ;
#186 = DIRECTION ( 'NONE',  ( 1.560230203480812895E-30, 1.000000000000000000, 4.327174794786742882E-16 ) ) ;
#187 = EDGE_LOOP ( 'NONE', ( #174 ) ) ;
#188 = CIRCLE ( 'NONE', #248, 2.300000000000003375 ) ;
#189 = CIRCLE ( 'NONE', #233, 2.300000000000003375 ) ;
#190 = DIRECTION ( 'NONE',  ( 1.510825004591028030E-30, 1.000000000000000000, 4.327174794786742882E-16 ) ) ;
#191 = EDGE_CURVE ( 'NONE', #10, #10, #175, .T. ) ;
#192 = PLANE ( 'NONE',  #237 ) ;
#193 = VERTEX_POINT ( 'NONE', #195 ) ;
#194 = MANIFOLD_SOLID_BREP ( 'Corps-Déplacer/Copier1[2]', #90 ) ;
#195 = CARTESIAN_POINT ( 'NONE',  ( 2.922829145920103263E-15, -2.300000000000003375, 0.8371315388122775314 ) ) ;
#196 = APPROVAL ( #40, 'UNSPECIFIED' ) ;
#197 = VERTEX_POINT ( 'NONE', #55 ) ;
#198 = CARTESIAN_POINT ( 'NONE',  ( 2.304377683636468267E-13, -8.082668874372532400E-15, 66.00000000000000000 ) ) ;
#199 = UNCERTAINTY_MEASURE_WITH_UNIT (LENGTH_MEASURE( 1.000000000000000082E-05 ), #14, 'distance_accuracy_value', 'NONE');
#200 = DIRECTION ( 'NONE',  ( 0.0000000000000000000, -1.000000000000000000, 0.0000000000000000000 ) ) ;
#201 = EDGE_LOOP ( 'NONE', ( #232 ) ) ;
#202 = DIRECTION ( 'NONE',  ( 1.000000000000000000, 0.0000000000000000000, 0.0000000000000000000 ) ) ;
#203 = CIRCLE ( 'NONE', #250, 3.000000000000000444 ) ;
#204 = CALENDAR_DATE ( 2021, 13, 10 ) ;
#205 = ORIENTED_EDGE ( 'NONE', *, *, #263, .T. ) ;
#206 = SECURITY_CLASSIFICATION ( '', '', #221 ) ;
#207 = EDGE_CURVE ( 'NONE', #217, #217, #203, .T. ) ;
#208 = EDGE_LOOP ( 'NONE', ( #125 ) ) ;
#209 = EDGE_LOOP ( 'NONE', ( #246 ) ) ;
#210 = ADVANCED_FACE ( 'NONE', ( #118 ), #111, .F. ) ;
#211 = ORIENTED_EDGE ( 'NONE', *, *, #143, .T. ) ;
#212 = APPROVAL_PERSON_ORGANIZATION ( #181, #196, #141 ) ;
#213 = CARTESIAN_POINT ( 'NONE',  ( 0.0000000000000000000, 0.0000000000000000000, 0.0000000000000000000 ) ) ;
#214 = CARTESIAN_POINT ( 'NONE',  ( 8.379555213223520053E-14, -1.038521950748818292E-14, 24.00000000000000000 ) ) ;
#215 = LOCAL_TIME ( 13, 36, 2.000000000000000000, #124 ) ;
#216 = DIRECTION ( 'NONE',  ( 3.491481338843133355E-15, -4.327174794786742882E-16, 1.000000000000000000 ) ) ;
#217 = VERTEX_POINT ( 'NONE', #59 ) ;
#218 = DIRECTION ( 'NONE',  ( -3.491481338843133355E-15, 1.224646799147353207E-16, -1.000000000000000000 ) ) ;
#219 = APPROVAL_STATUS ( 'not_yet_approved' ) ;
#220 = DATE_TIME_ROLE ( 'creation_date' ) ;
#221 = SECURITY_CLASSIFICATION_LEVEL ( 'unclassified' ) ;
#222 = PRODUCT_RELATED_PRODUCT_CATEGORY ( 'detail', '', ( #113 ) ) ;
#223 = DATE_AND_TIME ( #182, #159 ) ;
#224 = PRODUCT_DEFINITION_FORMATION_WITH_SPECIFIED_SOURCE ( 'ANY', '', #113, .NOT_KNOWN. ) ;
#225 = EDGE_LOOP ( 'NONE', ( #205 ) ) ;
#226 = COORDINATED_UNIVERSAL_TIME_OFFSET ( 1, 0, .AHEAD. ) ;
#227 = PRODUCT_DEFINITION ( 'UNKNOWN', '', #224, #179 ) ;
#228 = EDGE_LOOP ( 'NONE', ( #88 ) ) ;
#229 = CONICAL_SURFACE ( 'NONE', #114, 3.500000000000009770, 0.5235987755983005920 ) ;
#230 = CYLINDRICAL_SURFACE ( 'NONE', #2, 2.999999999999998224 ) ;
#231 = DIRECTION ( 'NONE',  ( -5.024165072314521230E-31, -1.000000000000000000, -1.414176746720221181E-16 ) ) ;
#232 = ORIENTED_EDGE ( 'NONE', *, *, #58, .F. ) ;
#233 = AXIS2_PLACEMENT_3D ( 'NONE', #149, #129, #48 ) ;
#234 = DIRECTION ( 'NONE',  ( 4.275831445896958607E-31, 1.000000000000000000, 1.224646799147353207E-16 ) ) ;
#235 = DIRECTION ( 'NONE',  ( -4.275831445896958607E-31, -1.000000000000000000, -1.224646799147353207E-16 ) ) ;
#236 = EDGE_CURVE ( 'NONE', #75, #75, #128, .T. ) ;
#237 = AXIS2_PLACEMENT_3D ( 'NONE', #5, #253, #249 ) ;
#238 = ADVANCED_FACE ( 'NONE', ( #116, #176 ), #229, .T. ) ;
#239 = CARTESIAN_POINT ( 'NONE',  ( 5.935518276033326704E-14, -7.356197151137462899E-15, 17.00000000000000000 ) ) ;
#240 = DIRECTION ( 'NONE',  ( 0.0000000000000000000, 0.0000000000000000000, 1.000000000000000000 ) ) ;
#241 = COORDINATED_UNIVERSAL_TIME_OFFSET ( 1, 0, .AHEAD. ) ;
#242 = CC_DESIGN_DATE_AND_TIME_ASSIGNMENT ( #262, #63, ( #206 ) ) ;
#243 = PERSON_AND_ORGANIZATION_ROLE ( 'creator' ) ;
#244 = CIRCLE ( 'NONE', #123, 2.300000000000003375 ) ;
#245 = ADVANCED_FACE ( 'NONE', ( #76, #157 ), #45, .T. ) ;
#246 = ORIENTED_EDGE ( 'NONE', *, *, #148, .F. ) ;
#247 = FACE_OUTER_BOUND ( 'NONE', #208, .T. ) ;
#248 = AXIS2_PLACEMENT_3D ( 'NONE', #251, #150, #231 ) ;
#249 = DIRECTION ( 'NONE',  ( -4.275831445896958607E-31, -1.000000000000000000, -1.224646799147353207E-16 ) ) ;
#250 = AXIS2_PLACEMENT_3D ( 'NONE', #13, #172, #35 ) ;
#251 = CARTESIAN_POINT ( 'NONE',  ( 2.922829145920104446E-15, -1.025190459471754274E-16, 0.8371315388122778645 ) ) ;
#252 = DIRECTION ( 'NONE',  ( -3.491481338843133355E-15, 1.224646799147353207E-16, -1.000000000000000000 ) ) ;
#253 = DIRECTION ( 'NONE',  ( 3.491481338843133355E-15, -1.224646799147353207E-16, 1.000000000000000000 ) ) ;
#254 = TOROIDAL_SURFACE ( 'NONE', #80, 3.300000000000006928, 0.9999999999999986677 ) ;
#255 = CARTESIAN_POINT ( 'NONE',  ( 8.896428788815492678E-14, -3.000000000000009326, 25.48038475772931832 ) ) ;
#256 = PRODUCT_DEFINITION_SHAPE ( 'NONE', 'NONE',  #227 ) ;
#257 = FACE_OUTER_BOUND ( 'NONE', #225, .T. ) ;
#258 = CARTESIAN_POINT ( 'NONE',  ( 0.0000000000000000000, 0.0000000000000000000, 0.0000000000000000000 ) ) ;
#259 = VERTEX_POINT ( 'NONE', #171 ) ;
#260 = CALENDAR_DATE ( 2021, 13, 10 ) ;
#261 = AXIS2_PLACEMENT_3D ( 'NONE', #65, #240, #202 ) ;
#262 = DATE_AND_TIME ( #61, #108 ) ;
#263 = EDGE_CURVE ( 'NONE', #79, #79, #244, .T. ) ;
ENDSEC;
END-ISO-10303-21;
