ISO-10303-21;
HEADER;
FILE_DESCRIPTION (( 'STEP AP203' ),
    '1' );
FILE_NAME ('43324.step',
    '2021-10-13T11:36:02',
    ( '' ),
    ( '' ),
    'SwSTEP 2.0',
    'SolidWorks 2019',
    '' );
FILE_SCHEMA (( 'CONFIG_CONTROL_DESIGN' ));
ENDSEC;

DATA;
#1 = MANIFOLD_SOLID_BREP ( 'Corps-Déplacer/Copier1[1]', #79 ) ;
#2 = PRODUCT_DEFINITION_FORMATION_WITH_SPECIFIED_SOURCE ( 'ANY', '', #128, .NOT_KNOWN. ) ;
#3 = EDGE_LOOP ( 'NONE', ( #199 ) ) ;
#4 = CALENDAR_DATE ( 2021, 13, 10 ) ;
#5 = EDGE_LOOP ( 'NONE', ( #112 ) ) ;
#6 = APPROVAL_ROLE ( '' ) ;
#7 = EDGE_LOOP ( 'NONE', ( #174 ) ) ;
#8 = CALENDAR_DATE ( 2021, 13, 10 ) ;
#9 = ORIENTED_EDGE ( 'NONE', *, *, #36, .F. ) ;
#10 = LOCAL_TIME ( 13, 36, 2.000000000000000000, #140 ) ;
#11 = CARTESIAN_POINT ( 'NONE',  ( 5.935518276033326704E-14, -2.250000000000010658, 17.00000000000000000 ) ) ;
#12 = TOROIDAL_SURFACE ( 'NONE', #263, 3.250000000000006217, 0.9999999999999985567 ) ;
#13 = ORIENTED_EDGE ( 'NONE', *, *, #246, .T. ) ;
#14 = ADVANCED_FACE ( 'NONE', ( #155, #75 ), #210, .T. ) ;
#15 = DIRECTION ( 'NONE',  ( -3.491481338843133355E-15, 4.327174794786742882E-16, -1.000000000000000000 ) ) ;
#16 = CARTESIAN_POINT ( 'NONE',  ( 8.926665904178266459E-14, -3.000000000000009770, 25.56698729810776172 ) ) ;
#17 = PLANE ( 'NONE',  #220 ) ;
#18 = AXIS2_PLACEMENT_3D ( 'NONE', #77, #146, #41 ) ;
#19 = LOCAL_TIME ( 13, 36, 2.000000000000000000, #64 ) ;
#20 = DIRECTION ( 'NONE',  ( 3.491481338843133355E-15, -4.327174794786742882E-16, 1.000000000000000000 ) ) ;
#21 = UNCERTAINTY_MEASURE_WITH_UNIT (LENGTH_MEASURE( 1.000000000000000082E-05 ), #147, 'distance_accuracy_value', 'NONE');
#22 = CARTESIAN_POINT ( 'NONE',  ( 5.935518276033326704E-14, -7.356197151137462899E-15, 17.00000000000000000 ) ) ;
#23 = DIRECTION ( 'NONE',  ( -4.275831445896958607E-31, -1.000000000000000000, -1.224646799147353207E-16 ) ) ;
#24 = AXIS2_PLACEMENT_3D ( 'NONE', #235, #218, #144 ) ;
#25 = ADVANCED_FACE ( 'NONE', ( #171, #190 ), #52, .T. ) ;
#26 = FACE_OUTER_BOUND ( 'NONE', #89, .T. ) ;
#27 = CIRCLE ( 'NONE', #131, 2.250000000000006661 ) ;
#28 = CIRCLE ( 'NONE', #72, 3.000000000000000444 ) ;
#29 = SHAPE_DEFINITION_REPRESENTATION ( #121, #141 ) ;
#30 = DIRECTION ( 'NONE',  ( -3.491481338843133355E-15, 4.327174794786742882E-16, -1.000000000000000000 ) ) ;
#31 = CALENDAR_DATE ( 2021, 13, 10 ) ;
#32 = CC_DESIGN_PERSON_AND_ORGANIZATION_ASSIGNMENT ( #152, #156, ( #2 ) ) ;
#33 = FACE_OUTER_BOUND ( 'NONE', #66, .T. ) ;
#34 = DATE_AND_TIME ( #4, #206 ) ;
#35 = ORIENTED_EDGE ( 'NONE', *, *, #123, .F. ) ;
#36 = EDGE_CURVE ( 'NONE', #217, #217, #28, .T. ) ;
#37 = ORIENTED_EDGE ( 'NONE', *, *, #238, .T. ) ;
#38 = CARTESIAN_POINT ( 'NONE',  ( 2.304377683636468267E-13, -8.082668874372532400E-15, 66.00000000000000000 ) ) ;
#39 = DIRECTION ( 'NONE',  ( -3.491481338843133355E-15, 1.224646799147353207E-16, -1.000000000000000000 ) ) ;
#40 = CARTESIAN_POINT ( 'NONE',  ( 2.859289381878361905E-15, -2.250000000000003109, 0.8189330270989670923 ) ) ;
#41 = DIRECTION ( 'NONE',  ( 0.0000000000000000000, 1.000000000000000000, 0.0000000000000000000 ) ) ;
#42 = CARTESIAN_POINT ( 'NONE',  ( 0.0000000000000000000, 0.0000000000000000000, 0.0000000000000000000 ) ) ;
#43 = ADVANCED_FACE ( 'NONE', ( #33 ), #196, .F. ) ;
#44 = FACE_OUTER_BOUND ( 'NONE', #161, .T. ) ;
#45 = AXIS2_PLACEMENT_3D ( 'NONE', #108, #71, #228 ) ;
#46 = DIRECTION ( 'NONE',  ( 0.0000000000000000000, 1.000000000000000000, 0.0000000000000000000 ) ) ;
#47 = CONICAL_SURFACE ( 'NONE', #223, 2.300000000000000711, 0.7853981633974437271 ) ;
#48 = CC_DESIGN_PERSON_AND_ORGANIZATION_ASSIGNMENT ( #250, #49, ( #104 ) ) ;
#49 = PERSON_AND_ORGANIZATION_ROLE ( 'classification_officer' ) ;
#50 = EDGE_LOOP ( 'NONE', ( #86 ) ) ;
#51 = APPROVAL_DATE_TIME ( #107, #188 ) ;
#52 = CYLINDRICAL_SURFACE ( 'NONE', #221, 2.999999999999998224 ) ;
#53 = CC_DESIGN_PERSON_AND_ORGANIZATION_ASSIGNMENT ( #90, #177, ( #150 ) ) ;
#54 = CARTESIAN_POINT ( 'NONE',  ( 2.279937314264566018E-13, -7.996943598432214956E-15, 65.29999999999999716 ) ) ;
#55 = DATE_AND_TIME ( #31, #19 ) ;
#56 = FACE_OUTER_BOUND ( 'NONE', #7, .T. ) ;
#57 = VERTEX_POINT ( 'NONE', #184 ) ;
#58 = VERTEX_POINT ( 'NONE', #40 ) ;
#59 = DIRECTION ( 'NONE',  ( 0.0000000000000000000, -1.000000000000000000, 0.0000000000000000000 ) ) ;
#60 = PLANE ( 'NONE',  #168 ) ;
#61 = DIRECTION ( 'NONE',  ( 0.0000000000000000000, -1.000000000000000000, 0.0000000000000000000 ) ) ;
#62 = COORDINATED_UNIVERSAL_TIME_OFFSET ( 1, 0, .AHEAD. ) ;
#63 = AXIS2_PLACEMENT_3D ( 'NONE', #203, #20, #61 ) ;
#64 = COORDINATED_UNIVERSAL_TIME_OFFSET ( 1, 0, .AHEAD. ) ;
#65 = ADVANCED_FACE ( 'NONE', ( #231, #56 ), #12, .F. ) ;
#66 = EDGE_LOOP ( 'NONE', ( #194 ) ) ;
#67 = CALENDAR_DATE ( 2021, 13, 10 ) ;
#68 = DIRECTION ( 'NONE',  ( -3.491481338843133355E-15, 1.224646799147353207E-16, -1.000000000000000000 ) ) ;
#69 = DIRECTION ( 'NONE',  ( -4.275831445896958607E-31, -1.000000000000000000, -1.224646799147353207E-16 ) ) ;
#70 = APPROVAL ( #252, 'UNSPECIFIED' ) ;
#71 = DIRECTION ( 'NONE',  ( 0.0000000000000000000, 0.0000000000000000000, 1.000000000000000000 ) ) ;
#72 = AXIS2_PLACEMENT_3D ( 'NONE', #54, #213, #136 ) ;
#73 = ORIENTED_EDGE ( 'NONE', *, *, #80, .T. ) ;
#74 = DIRECTION ( 'NONE',  ( -3.491481338843133355E-15, 4.327174794786742882E-16, -1.000000000000000000 ) ) ;
#75 = FACE_OUTER_BOUND ( 'NONE', #83, .T. ) ;
#76 = ORGANIZATION ( 'UNSPECIFIED', 'UNSPECIFIED', '' ) ;
#77 = CARTESIAN_POINT ( 'NONE',  ( 8.554129280165677352E-14, -1.060157824722752006E-14, 24.50000000000000000 ) ) ;
#78 = CARTESIAN_POINT ( 'NONE',  ( 8.926665904178266459E-14, -1.106328230150047158E-14, 25.56698729810776172 ) ) ;
#79 = CLOSED_SHELL ( 'NONE', ( #25, #227, #139, #14, #204, #65, #43 ) ) ;
#80 = EDGE_CURVE ( 'NONE', #201, #201, #187, .T. ) ;
#81 = LOCAL_TIME ( 13, 36, 2.000000000000000000, #62 ) ;
#82 = APPLICATION_PROTOCOL_DEFINITION ( 'international standard', 'config_control_design', 1994, #151 ) ;
#83 = EDGE_LOOP ( 'NONE', ( #160 ) ) ;
#84 = AXIS2_PLACEMENT_3D ( 'NONE', #215, #39, #59 ) ;
#85 = SECURITY_CLASSIFICATION_LEVEL ( 'unclassified' ) ;
#86 = ORIENTED_EDGE ( 'NONE', *, *, #238, .F. ) ;
#87 = APPROVAL_DATE_TIME ( #34, #127 ) ;
#88 = CC_DESIGN_PERSON_AND_ORGANIZATION_ASSIGNMENT ( #175, #226, ( #2 ) ) ;
#89 = EDGE_LOOP ( 'NONE', ( #73 ) ) ;
#90 = PERSON_AND_ORGANIZATION ( #98, #76 ) ;
#91 = EDGE_LOOP ( 'NONE', ( #94 ) ) ;
#92 = MANIFOLD_SOLID_BREP ( 'Corps-Déplacer/Copier1[2]', #166 ) ;
#93 = CC_DESIGN_APPROVAL ( #127, ( #2 ) ) ;
#94 = ORIENTED_EDGE ( 'NONE', *, *, #80, .F. ) ;
#95 = FACE_OUTER_BOUND ( 'NONE', #214, .T. ) ;
#96 = VERTEX_POINT ( 'NONE', #181 ) ;
#97 = CARTESIAN_POINT ( 'NONE',  ( 5.935518276033326704E-14, 2.249639673992780117E-32, 17.00000000000000000 ) ) ;
#98 = PERSON ( 'UNSPECIFIED', 'UNSPECIFIED', 'UNSPECIFIED', ('UNSPECIFIED'), ('UNSPECIFIED'), ('UNSPECIFIED') ) ;
#99 = DIRECTION ( 'NONE',  ( 3.491481338843133355E-15, -1.224646799147353207E-16, 1.000000000000000000 ) ) ;
#100 = APPLICATION_CONTEXT ( 'configuration controlled 3d designs of mechanical parts and assemblies' ) ;
#101 = CARTESIAN_POINT ( 'NONE',  ( 8.379555213223520053E-14, -1.040834085586084257E-14, 24.00000000000000000 ) ) ;
#102 = CARTESIAN_POINT ( 'NONE',  ( 3.812385842504470444E-15, -1.337204947137066162E-16, 1.091910702798619459 ) ) ;
#103 = DIRECTION ( 'NONE',  ( -3.491481338843133355E-15, 1.224646799147353207E-16, -1.000000000000000000 ) ) ;
#104 = SECURITY_CLASSIFICATION ( '', '', #85 ) ;
#105 = AXIS2_PLACEMENT_3D ( 'NONE', #42, #15, #122 ) ;
#106 = EDGE_CURVE ( 'NONE', #57, #57, #245, .T. ) ;
#107 = DATE_AND_TIME ( #8, #81 ) ;
#108 = CARTESIAN_POINT ( 'NONE',  ( 0.0000000000000000000, 0.0000000000000000000, 0.0000000000000000000 ) ) ;
#109 = EDGE_LOOP ( 'NONE', ( #37 ) ) ;
#110 = APPROVAL_PERSON_ORGANIZATION ( #134, #127, #172 ) ;
#111 = EDGE_CURVE ( 'NONE', #143, #143, #258, .T. ) ;
#112 = ORIENTED_EDGE ( 'NONE', *, *, #130, .F. ) ;
#113 = DATE_TIME_ROLE ( 'classification_date' ) ;
#114 = EDGE_LOOP ( 'NONE', ( #178 ) ) ;
#115 = ORIENTED_EDGE ( 'NONE', *, *, #106, .F. ) ;
#116 =( GEOMETRIC_REPRESENTATION_CONTEXT ( 3 ) GLOBAL_UNCERTAINTY_ASSIGNED_CONTEXT ( ( #21 ) ) GLOBAL_UNIT_ASSIGNED_CONTEXT ( ( #147, #167, #224 ) ) REPRESENTATION_CONTEXT ( 'NONE', 'WORKASPACE' ) );
#117 = CARTESIAN_POINT ( 'NONE',  ( 2.859289381878362694E-15, -1.002903710352803011E-16, 0.8189330270989674254 ) ) ;
#118 = CARTESIAN_POINT ( 'NONE',  ( 8.554129280165677352E-14, 2.383974596215559405, 24.50000000000000000 ) ) ;
#119 = DIRECTION ( 'NONE',  ( -3.491481338843133355E-15, 1.224646799147353207E-16, -1.000000000000000000 ) ) ;
#120 = DIRECTION ( 'NONE',  ( -3.491481338843133355E-15, 1.224646799147353207E-16, -1.000000000000000000 ) ) ;
#121 = PRODUCT_DEFINITION_SHAPE ( 'NONE', 'NONE',  #150 ) ;
#122 = DIRECTION ( 'NONE',  ( 1.510825004591028205E-30, 1.000000000000000000, 4.327174794786742882E-16 ) ) ;
#123 = EDGE_CURVE ( 'NONE', #58, #58, #137, .T. ) ;
#124 = DIRECTION ( 'NONE',  ( -5.135813185032639159E-31, -1.000000000000000000, -1.445602896647342121E-16 ) ) ;
#125 = DIRECTION ( 'NONE',  ( 1.560811441114810358E-30, 1.000000000000000000, 4.327174794786742389E-16 ) ) ;
#126 = APPROVAL_PERSON_ORGANIZATION ( #132, #70, #232 ) ;
#127 = APPROVAL ( #192, 'UNSPECIFIED' ) ;
#128 = PRODUCT ( '43324', '43324', '', ( #248 ) ) ;
#129 = CALENDAR_DATE ( 2021, 13, 10 ) ;
#130 = EDGE_CURVE ( 'NONE', #163, #163, #193, .T. ) ;
#131 = AXIS2_PLACEMENT_3D ( 'NONE', #149, #74, #46 ) ;
#132 = PERSON_AND_ORGANIZATION ( #98, #76 ) ;
#133 = EDGE_LOOP ( 'NONE', ( #157 ) ) ;
#134 = PERSON_AND_ORGANIZATION ( #98, #76 ) ;
#135 = CARTESIAN_POINT ( 'NONE',  ( 0.0000000000000000000, 0.0000000000000000000, 0.0000000000000000000 ) ) ;
#136 = DIRECTION ( 'NONE',  ( 0.0000000000000000000, 1.000000000000000000, 0.0000000000000000000 ) ) ;
#137 = CIRCLE ( 'NONE', #237, 2.250000000000003109 ) ;
#138 = CC_DESIGN_SECURITY_CLASSIFICATION ( #104, ( #2 ) ) ;
#139 = ADVANCED_FACE ( 'NONE', ( #182 ), #60, .F. ) ;
#140 = COORDINATED_UNIVERSAL_TIME_OFFSET ( 1, 0, .AHEAD. ) ;
#141 = ADVANCED_BREP_SHAPE_REPRESENTATION ( '43324', ( #1, #92, #45 ), #116 ) ;
#142 = ORIENTED_EDGE ( 'NONE', *, *, #106, .T. ) ;
#143 = VERTEX_POINT ( 'NONE', #260 ) ;
#144 = DIRECTION ( 'NONE',  ( 0.0000000000000000000, 1.000000000000000000, 0.0000000000000000000 ) ) ;
#145 = FACE_OUTER_BOUND ( 'NONE', #133, .T. ) ;
#146 = DIRECTION ( 'NONE',  ( -3.491481338843133355E-15, 4.327174794786742882E-16, -1.000000000000000000 ) ) ;
#147 =( LENGTH_UNIT ( ) NAMED_UNIT ( * ) SI_UNIT ( .MILLI., .METRE. ) );
#148 = CONICAL_SURFACE ( 'NONE', #63, 3.500000000000009770, 0.5235987755983001479 ) ;
#149 = CARTESIAN_POINT ( 'NONE',  ( 8.379555213223520053E-14, -1.038521950748818292E-14, 24.00000000000000000 ) ) ;
#150 = PRODUCT_DEFINITION ( 'UNKNOWN', '', #2, #205 ) ;
#151 = APPLICATION_CONTEXT ( 'configuration controlled 3d designs of mechanical parts and assemblies' ) ;
#152 = PERSON_AND_ORGANIZATION ( #98, #76 ) ;
#153 = APPROVAL_STATUS ( 'not_yet_approved' ) ;
#154 = APPROVAL_DATE_TIME ( #211, #70 ) ;
#155 = FACE_OUTER_BOUND ( 'NONE', #198, .T. ) ;
#156 = PERSON_AND_ORGANIZATION_ROLE ( 'creator' ) ;
#157 = ORIENTED_EDGE ( 'NONE', *, *, #123, .T. ) ;
#158 = LOCAL_TIME ( 13, 36, 2.000000000000000000, #159 ) ;
#159 = COORDINATED_UNIVERSAL_TIME_OFFSET ( 1, 0, .AHEAD. ) ;
#160 = ORIENTED_EDGE ( 'NONE', *, *, #111, .F. ) ;
#161 = EDGE_LOOP ( 'NONE', ( #35 ) ) ;
#162 = DIRECTION ( 'NONE',  ( 3.491481338843133355E-15, -4.327174794786742882E-16, 1.000000000000000000 ) ) ;
#163 = VERTEX_POINT ( 'NONE', #118 ) ;
#164 = FACE_OUTER_BOUND ( 'NONE', #91, .T. ) ;
#165 = FACE_BOUND ( 'NONE', #5, .T. ) ;
#166 = CLOSED_SHELL ( 'NONE', ( #219, #186, #169 ) ) ;
#167 =( NAMED_UNIT ( * ) PLANE_ANGLE_UNIT ( ) SI_UNIT ( $, .RADIAN. ) );
#168 = AXIS2_PLACEMENT_3D ( 'NONE', #241, #119, #259 ) ;
#169 = ADVANCED_FACE ( 'NONE', ( #164 ), #17, .T. ) ;
#170 = DATE_AND_TIME ( #67, #158 ) ;
#171 = FACE_OUTER_BOUND ( 'NONE', #109, .T. ) ;
#172 = APPROVAL_ROLE ( '' ) ;
#173 = CC_DESIGN_DATE_AND_TIME_ASSIGNMENT ( #55, #254, ( #150 ) ) ;
#174 = ORIENTED_EDGE ( 'NONE', *, *, #130, .T. ) ;
#175 = PERSON_AND_ORGANIZATION ( #98, #76 ) ;
#176 = CARTESIAN_POINT ( 'NONE',  ( 5.935518276033326704E-14, 2.249639673992780117E-32, 17.00000000000000000 ) ) ;
#177 = PERSON_AND_ORGANIZATION_ROLE ( 'creator' ) ;
#178 = ORIENTED_EDGE ( 'NONE', *, *, #36, .T. ) ;
#179 = DIRECTION ( 'NONE',  ( 0.0000000000000000000, -1.000000000000000000, 0.0000000000000000000 ) ) ;
#180 = DIRECTION ( 'NONE',  ( -3.423875456688414575E-31, -1.000000000000000000, -1.445602896647337191E-16 ) ) ;
#181 = CARTESIAN_POINT ( 'NONE',  ( 8.379555213223520053E-14, 2.249999999999996447, 24.00000000000000000 ) ) ;
#182 = FACE_OUTER_BOUND ( 'NONE', #233, .T. ) ;
#183 = AXIS2_PLACEMENT_3D ( 'NONE', #22, #103, #185 ) ;
#184 = CARTESIAN_POINT ( 'NONE',  ( 2.304377683636468267E-13, 2.299999999999992717, 66.00000000000000000 ) ) ;
#185 = DIRECTION ( 'NONE',  ( 0.0000000000000000000, -1.000000000000000000, 0.0000000000000000000 ) ) ;
#186 = ADVANCED_FACE ( 'NONE', ( #26, #44 ), #256, .T. ) ;
#187 = CIRCLE ( 'NONE', #183, 2.250000000000003109 ) ;
#188 = APPROVAL ( #153, 'UNSPECIFIED' ) ;
#189 = APPLICATION_PROTOCOL_DEFINITION ( 'international standard', 'config_control_design', 1994, #100 ) ;
#190 = FACE_OUTER_BOUND ( 'NONE', #114, .T. ) ;
#191 = CC_DESIGN_PERSON_AND_ORGANIZATION_ASSIGNMENT ( #247, #207, ( #128 ) ) ;
#192 = APPROVAL_STATUS ( 'not_yet_approved' ) ;
#193 = CIRCLE ( 'NONE', #18, 2.383974596215569619 ) ;
#194 = ORIENTED_EDGE ( 'NONE', *, *, #111, .T. ) ;
#195 = COORDINATED_UNIVERSAL_TIME_OFFSET ( 1, 0, .AHEAD. ) ;
#196 = PLANE ( 'NONE',  #239 ) ;
#197 = PRODUCT_RELATED_PRODUCT_CATEGORY ( 'detail', '', ( #128 ) ) ;
#198 = EDGE_LOOP ( 'NONE', ( #13 ) ) ;
#199 = ORIENTED_EDGE ( 'NONE', *, *, #246, .F. ) ;
#200 = AXIS2_PLACEMENT_3D ( 'NONE', #208, #30, #251 ) ;
#201 = VERTEX_POINT ( 'NONE', #11 ) ;
#202 = VERTEX_POINT ( 'NONE', #16 ) ;
#203 = CARTESIAN_POINT ( 'NONE',  ( 9.229037057806018154E-14, -1.143802663139058194E-14, 26.43301270189221697 ) ) ;
#204 = ADVANCED_FACE ( 'NONE', ( #165, #240 ), #148, .T. ) ;
#205 = DESIGN_CONTEXT ( 'detailed design', #100, 'design' ) ;
#206 = LOCAL_TIME ( 13, 36, 2.000000000000000000, #195 ) ;
#207 = PERSON_AND_ORGANIZATION_ROLE ( 'design_owner' ) ;
#208 = CARTESIAN_POINT ( 'NONE',  ( 0.0000000000000000000, 0.0000000000000000000, 0.0000000000000000000 ) ) ;
#209 = PERSON_AND_ORGANIZATION ( #98, #76 ) ;
#210 = CYLINDRICAL_SURFACE ( 'NONE', #200, 2.250000000000003109 ) ;
#211 = DATE_AND_TIME ( #129, #10 ) ;
#212 = CC_DESIGN_APPROVAL ( #70, ( #104 ) ) ;
#213 = DIRECTION ( 'NONE',  ( -3.491481338843133355E-15, 1.224646799147353207E-16, -1.000000000000000000 ) ) ;
#214 = EDGE_LOOP ( 'NONE', ( #9 ) ) ;
#215 = CARTESIAN_POINT ( 'NONE',  ( 5.935518276033326704E-14, -7.356197151137462899E-15, 17.00000000000000000 ) ) ;
#216 = APPROVAL_PERSON_ORGANIZATION ( #209, #188, #6 ) ;
#217 = VERTEX_POINT ( 'NONE', #255 ) ;
#218 = DIRECTION ( 'NONE',  ( -3.491481338843133355E-15, 1.224646799147353207E-16, -1.000000000000000000 ) ) ;
#219 = ADVANCED_FACE ( 'NONE', ( #145 ), #230, .T. ) ;
#220 = AXIS2_PLACEMENT_3D ( 'NONE', #97, #222, #23 ) ;
#221 = AXIS2_PLACEMENT_3D ( 'NONE', #135, #68, #229 ) ;
#222 = DIRECTION ( 'NONE',  ( 3.491481338843133355E-15, -1.224646799147353207E-16, 1.000000000000000000 ) ) ;
#223 = AXIS2_PLACEMENT_3D ( 'NONE', #38, #261, #234 ) ;
#224 =( NAMED_UNIT ( * ) SI_UNIT ( $, .STERADIAN. ) SOLID_ANGLE_UNIT ( ) );
#225 = AXIS2_PLACEMENT_3D ( 'NONE', #78, #162, #179 ) ;
#226 = PERSON_AND_ORGANIZATION_ROLE ( 'design_supplier' ) ;
#227 = ADVANCED_FACE ( 'NONE', ( #95, #236 ), #47, .T. ) ;
#228 = DIRECTION ( 'NONE',  ( 1.000000000000000000, 0.0000000000000000000, 0.0000000000000000000 ) ) ;
#229 = DIRECTION ( 'NONE',  ( 4.275831445896958607E-31, 1.000000000000000000, 1.224646799147353454E-16 ) ) ;
#230 = CONICAL_SURFACE ( 'NONE', #244, 2.999999999999993783, 1.221730476396026388 ) ;
#231 = FACE_OUTER_BOUND ( 'NONE', #3, .T. ) ;
#232 = APPROVAL_ROLE ( '' ) ;
#233 = EDGE_LOOP ( 'NONE', ( #115 ) ) ;
#234 = DIRECTION ( 'NONE',  ( 0.0000000000000000000, 1.000000000000000000, 0.0000000000000000000 ) ) ;
#235 = CARTESIAN_POINT ( 'NONE',  ( 2.304377683636468267E-13, -8.082668874372532400E-15, 66.00000000000000000 ) ) ;
#236 = FACE_BOUND ( 'NONE', #249, .T. ) ;
#237 = AXIS2_PLACEMENT_3D ( 'NONE', #117, #120, #180 ) ;
#238 = EDGE_CURVE ( 'NONE', #202, #202, #262, .T. ) ;
#239 = AXIS2_PLACEMENT_3D ( 'NONE', #176, #253, #69 ) ;
#240 = FACE_OUTER_BOUND ( 'NONE', #50, .T. ) ;
#241 = CARTESIAN_POINT ( 'NONE',  ( 2.304377683636468267E-13, 1.724723750061124754E-32, 66.00000000000000000 ) ) ;
#242 = CC_DESIGN_APPROVAL ( #188, ( #150 ) ) ;
#243 = CC_DESIGN_DATE_AND_TIME_ASSIGNMENT ( #170, #113, ( #104 ) ) ;
#244 = AXIS2_PLACEMENT_3D ( 'NONE', #102, #99, #124 ) ;
#245 = CIRCLE ( 'NONE', #24, 2.300000000000000711 ) ;
#246 = EDGE_CURVE ( 'NONE', #96, #96, #27, .T. ) ;
#247 = PERSON_AND_ORGANIZATION ( #98, #76 ) ;
#248 = MECHANICAL_CONTEXT ( 'NONE', #151, 'mechanical' ) ;
#249 = EDGE_LOOP ( 'NONE', ( #142 ) ) ;
#250 = PERSON_AND_ORGANIZATION ( #98, #76 ) ;
#251 = DIRECTION ( 'NONE',  ( 1.510825004591028205E-30, 1.000000000000000000, 4.327174794786742882E-16 ) ) ;
#252 = APPROVAL_STATUS ( 'not_yet_approved' ) ;
#253 = DIRECTION ( 'NONE',  ( 3.491481338843133355E-15, -1.224646799147353207E-16, 1.000000000000000000 ) ) ;
#254 = DATE_TIME_ROLE ( 'creation_date' ) ;
#255 = CARTESIAN_POINT ( 'NONE',  ( 2.279937314264566018E-13, 2.999999999999992895, 65.29999999999999716 ) ) ;
#256 = CYLINDRICAL_SURFACE ( 'NONE', #105, 2.250000000000003109 ) ;
#257 = DIRECTION ( 'NONE',  ( -3.491481338843133355E-15, 4.327174794786742882E-16, -1.000000000000000000 ) ) ;
#258 = CIRCLE ( 'NONE', #84, 2.250000000000003109 ) ;
#259 = DIRECTION ( 'NONE',  ( 4.275831445896958607E-31, 1.000000000000000000, 1.224646799147353207E-16 ) ) ;
#260 = CARTESIAN_POINT ( 'NONE',  ( 5.935518276033326704E-14, -2.250000000000010658, 17.00000000000000000 ) ) ;
#261 = DIRECTION ( 'NONE',  ( -3.491481338843133355E-15, 1.224646799147353207E-16, -1.000000000000000000 ) ) ;
#262 = CIRCLE ( 'NONE', #225, 2.999999999999998224 ) ;
#263 = AXIS2_PLACEMENT_3D ( 'NONE', #101, #257, #125 ) ;
ENDSEC;
END-ISO-10303-21;
