ISO-10303-21;
HEADER;
FILE_DESCRIPTION (( 'STEP AP203' ),
    '1' );
FILE_NAME ('43323.step',
    '2021-10-13T11:36:01',
    ( '' ),
    ( '' ),
    'SwSTEP 2.0',
    'SolidWorks 2019',
    '' );
FILE_SCHEMA (( 'CONFIG_CONTROL_DESIGN' ));
ENDSEC;

DATA;
#1 = CC_DESIGN_APPROVAL ( #20, ( #162 ) ) ;
#2 = CARTESIAN_POINT ( 'NONE',  ( 2.279937314264566018E-13, 2.999999999999992895, 65.29999999999999716 ) ) ;
#3 = PERSON_AND_ORGANIZATION_ROLE ( 'design_supplier' ) ;
#4 = CARTESIAN_POINT ( 'NONE',  ( 0.0000000000000000000, 0.0000000000000000000, 0.0000000000000000000 ) ) ;
#5 = CC_DESIGN_PERSON_AND_ORGANIZATION_ASSIGNMENT ( #106, #150, ( #13 ) ) ;
#6 = CARTESIAN_POINT ( 'NONE',  ( 5.935518276033326704E-14, -2.200000000000011280, 17.00000000000000000 ) ) ;
#7 = EDGE_LOOP ( 'NONE', ( #256 ) ) ;
#8 = DIRECTION ( 'NONE',  ( 1.000000000000000000, 0.0000000000000000000, 0.0000000000000000000 ) ) ;
#9 = CARTESIAN_POINT ( 'NONE',  ( 0.0000000000000000000, 0.0000000000000000000, 0.0000000000000000000 ) ) ;
#10 = APPROVAL_ROLE ( '' ) ;
#11 = ORIENTED_EDGE ( 'NONE', *, *, #230, .F. ) ;
#12 = DIRECTION ( 'NONE',  ( 0.0000000000000000000, 1.000000000000000000, 0.0000000000000000000 ) ) ;
#13 = PRODUCT ( '43323', '43323', '', ( #48 ) ) ;
#14 = VERTEX_POINT ( 'NONE', #26 ) ;
#15 = CC_DESIGN_DATE_AND_TIME_ASSIGNMENT ( #186, #84, ( #124 ) ) ;
#16 = DIRECTION ( 'NONE',  ( 3.491481338843133355E-15, -1.224646799147353207E-16, 1.000000000000000000 ) ) ;
#17 = APPROVAL_DATE_TIME ( #115, #145 ) ;
#18 = FACE_OUTER_BOUND ( 'NONE', #191, .T. ) ;
#19 = AXIS2_PLACEMENT_3D ( 'NONE', #155, #103, #179 ) ;
#20 = APPROVAL ( #161, 'UNSPECIFIED' ) ;
#21 = DIRECTION ( 'NONE',  ( 3.491481338843133355E-15, -1.224646799147353207E-16, 1.000000000000000000 ) ) ;
#22 = CIRCLE ( 'NONE', #178, 2.333974596215570685 ) ;
#23 = CIRCLE ( 'NONE', #69, 2.200000000000004174 ) ;
#24 = ADVANCED_FACE ( 'NONE', ( #94 ), #169, .F. ) ;
#25 = CYLINDRICAL_SURFACE ( 'NONE', #244, 2.200000000000004174 ) ;
#26 = CARTESIAN_POINT ( 'NONE',  ( 5.935518276033326704E-14, -2.200000000000011280, 17.00000000000000000 ) ) ;
#27 = APPLICATION_CONTEXT ( 'configuration controlled 3d designs of mechanical parts and assemblies' ) ;
#28 = APPLICATION_PROTOCOL_DEFINITION ( 'international standard', 'config_control_design', 1994, #27 ) ;
#29 = PERSON_AND_ORGANIZATION ( #82, #86 ) ;
#30 = DIRECTION ( 'NONE',  ( 0.0000000000000000000, 1.000000000000000000, 0.0000000000000000000 ) ) ;
#31 = PERSON_AND_ORGANIZATION_ROLE ( 'creator' ) ;
#32 = EDGE_LOOP ( 'NONE', ( #37 ) ) ;
#33 = CONICAL_SURFACE ( 'NONE', #239, 2.999999999999993783, 1.221730476396026388 ) ;
#34 = ORIENTED_EDGE ( 'NONE', *, *, #119, .T. ) ;
#35 = DIRECTION ( 'NONE',  ( -4.275831445896958607E-31, -1.000000000000000000, -1.224646799147353207E-16 ) ) ;
#36 = EDGE_CURVE ( 'NONE', #245, #245, #224, .T. ) ;
#37 = ORIENTED_EDGE ( 'NONE', *, *, #153, .F. ) ;
#38 = AXIS2_PLACEMENT_3D ( 'NONE', #98, #240, #198 ) ;
#39 = CARTESIAN_POINT ( 'NONE',  ( 0.0000000000000000000, 0.0000000000000000000, 0.0000000000000000000 ) ) ;
#40 = FACE_BOUND ( 'NONE', #166, .T. ) ;
#41 = CARTESIAN_POINT ( 'NONE',  ( 5.935518276033326704E-14, -7.356197151137462899E-15, 17.00000000000000000 ) ) ;
#42 = PRODUCT_DEFINITION_SHAPE ( 'NONE', 'NONE',  #124 ) ;
#43 = APPROVAL_PERSON_ORGANIZATION ( #168, #145, #75 ) ;
#44 = APPROVAL ( #149, 'UNSPECIFIED' ) ;
#45 = CARTESIAN_POINT ( 'NONE',  ( 9.259274173168793197E-14, -1.147550106437959108E-14, 26.51961524227065681 ) ) ;
#46 = PERSON_AND_ORGANIZATION_ROLE ( 'classification_officer' ) ;
#47 = COORDINATED_UNIVERSAL_TIME_OFFSET ( 1, 0, .AHEAD. ) ;
#48 = MECHANICAL_CONTEXT ( 'NONE', #27, 'mechanical' ) ;
#49 = FACE_OUTER_BOUND ( 'NONE', #133, .T. ) ;
#50 = COORDINATED_UNIVERSAL_TIME_OFFSET ( 1, 0, .AHEAD. ) ;
#51 = APPLICATION_CONTEXT ( 'configuration controlled 3d designs of mechanical parts and assemblies' ) ;
#52 = CC_DESIGN_PERSON_AND_ORGANIZATION_ASSIGNMENT ( #184, #3, ( #162 ) ) ;
#53 = EDGE_LOOP ( 'NONE', ( #192 ) ) ;
#54 = LOCAL_TIME ( 13, 36, 1.000000000000000000, #236 ) ;
#55 = ORIENTED_EDGE ( 'NONE', *, *, #65, .T. ) ;
#56 = DIRECTION ( 'NONE',  ( -3.491481338843133355E-15, 1.224646799147353207E-16, -1.000000000000000000 ) ) ;
#57 = CARTESIAN_POINT ( 'NONE',  ( 2.304377683636468267E-13, 1.724723750061124754E-32, 66.00000000000000000 ) ) ;
#58 = CARTESIAN_POINT ( 'NONE',  ( 0.0000000000000000000, 0.0000000000000000000, 0.0000000000000000000 ) ) ;
#59 = DIRECTION ( 'NONE',  ( 0.0000000000000000000, 1.000000000000000000, 0.0000000000000000000 ) ) ;
#60 = DIRECTION ( 'NONE',  ( 0.0000000000000000000, -1.000000000000000000, 0.0000000000000000000 ) ) ;
#61 = APPROVAL_PERSON_ORGANIZATION ( #109, #44, #10 ) ;
#62 = ADVANCED_FACE ( 'NONE', ( #49, #71 ), #130, .T. ) ;
#63 = VERTEX_POINT ( 'NONE', #142 ) ;
#64 = AXIS2_PLACEMENT_3D ( 'NONE', #45, #214, #174 ) ;
#65 = EDGE_CURVE ( 'NONE', #83, #83, #96, .T. ) ;
#66 = DATE_AND_TIME ( #187, #218 ) ;
#67 = VERTEX_POINT ( 'NONE', #6 ) ;
#68 = ORIENTED_EDGE ( 'NONE', *, *, #112, .T. ) ;
#69 = AXIS2_PLACEMENT_3D ( 'NONE', #41, #138, #60 ) ;
#70 = FACE_OUTER_BOUND ( 'NONE', #88, .T. ) ;
#71 = FACE_OUTER_BOUND ( 'NONE', #53, .T. ) ;
#72 = LOCAL_TIME ( 13, 36, 1.000000000000000000, #47 ) ;
#73 = CC_DESIGN_APPROVAL ( #44, ( #124 ) ) ;
#74 = ORIENTED_EDGE ( 'NONE', *, *, #36, .T. ) ;
#75 = APPROVAL_ROLE ( '' ) ;
#76 = DIRECTION ( 'NONE',  ( -5.135813185032639159E-31, -1.000000000000000000, -1.445602896647342121E-16 ) ) ;
#77 = FACE_OUTER_BOUND ( 'NONE', #148, .T. ) ;
#78 = AXIS2_PLACEMENT_3D ( 'NONE', #211, #108, #35 ) ;
#79 = FACE_OUTER_BOUND ( 'NONE', #32, .T. ) ;
#80 = DIRECTION ( 'NONE',  ( -3.491481338843133355E-15, 4.327174794786742882E-16, -1.000000000000000000 ) ) ;
#81 = AXIS2_PLACEMENT_3D ( 'NONE', #57, #195, #260 ) ;
#82 = PERSON ( 'UNSPECIFIED', 'UNSPECIFIED', 'UNSPECIFIED', ('UNSPECIFIED'), ('UNSPECIFIED'), ('UNSPECIFIED') ) ;
#83 = VERTEX_POINT ( 'NONE', #159 ) ;
#84 = DATE_TIME_ROLE ( 'creation_date' ) ;
#85 = CLOSED_SHELL ( 'NONE', ( #193, #189, #219, #62, #128, #226, #24 ) ) ;
#86 = ORGANIZATION ( 'UNSPECIFIED', 'UNSPECIFIED', '' ) ;
#87 = CALENDAR_DATE ( 2021, 13, 10 ) ;
#88 = EDGE_LOOP ( 'NONE', ( #89 ) ) ;
#89 = ORIENTED_EDGE ( 'NONE', *, *, #93, .T. ) ;
#90 = SECURITY_CLASSIFICATION_LEVEL ( 'unclassified' ) ;
#91 = ORIENTED_EDGE ( 'NONE', *, *, #230, .T. ) ;
#92 = MANIFOLD_SOLID_BREP ( 'Corps-Déplacer/Copier1[1]', #85 ) ;
#93 = EDGE_CURVE ( 'NONE', #63, #63, #117, .T. ) ;
#94 = FACE_OUTER_BOUND ( 'NONE', #165, .T. ) ;
#95 = EDGE_LOOP ( 'NONE', ( #188 ) ) ;
#96 = CIRCLE ( 'NONE', #243, 2.300000000000000711 ) ;
#97 = DIRECTION ( 'NONE',  ( 4.275831445896958607E-31, 1.000000000000000000, 1.224646799147353454E-16 ) ) ;
#98 = CARTESIAN_POINT ( 'NONE',  ( 8.956903019541040240E-14, -1.110075673448948072E-14, 25.65358983848620156 ) ) ;
#99 = ADVANCED_FACE ( 'NONE', ( #70 ), #33, .T. ) ;
#100 = ADVANCED_BREP_SHAPE_REPRESENTATION ( '43323', ( #92, #176, #160 ), #209 ) ;
#101 = DIRECTION ( 'NONE',  ( -3.491481338843133355E-15, 1.224646799147353207E-16, -1.000000000000000000 ) ) ;
#102 = CLOSED_SHELL ( 'NONE', ( #99, #263, #141 ) ) ;
#103 = DIRECTION ( 'NONE',  ( -3.491481338843133355E-15, 4.327174794786742882E-16, -1.000000000000000000 ) ) ;
#104 = DIRECTION ( 'NONE',  ( -3.491481338843133355E-15, 4.327174794786742882E-16, -1.000000000000000000 ) ) ;
#105 = VERTEX_POINT ( 'NONE', #163 ) ;
#106 = PERSON_AND_ORGANIZATION ( #82, #86 ) ;
#107 = PERSON_AND_ORGANIZATION_ROLE ( 'creator' ) ;
#108 = DIRECTION ( 'NONE',  ( 3.491481338843133355E-15, -1.224646799147353207E-16, 1.000000000000000000 ) ) ;
#109 = PERSON_AND_ORGANIZATION ( #82, #86 ) ;
#110 = ORIENTED_EDGE ( 'NONE', *, *, #112, .F. ) ;
#111 = CIRCLE ( 'NONE', #261, 2.200000000000007727 ) ;
#112 = EDGE_CURVE ( 'NONE', #221, #221, #180, .T. ) ;
#113 = EDGE_LOOP ( 'NONE', ( #110 ) ) ;
#114 = DIRECTION ( 'NONE',  ( -3.491481338843133355E-15, 1.224646799147353207E-16, -1.000000000000000000 ) ) ;
#115 = DATE_AND_TIME ( #131, #54 ) ;
#116 = CARTESIAN_POINT ( 'NONE',  ( 8.956903019541040240E-14, -3.000000000000009770, 25.65358983848620156 ) ) ;
#117 = CIRCLE ( 'NONE', #196, 2.200000000000004174 ) ;
#118 = CARTESIAN_POINT ( 'NONE',  ( 2.304377683636468267E-13, -8.082668874372532400E-15, 66.00000000000000000 ) ) ;
#119 = EDGE_CURVE ( 'NONE', #14, #14, #23, .T. ) ;
#120 = APPROVAL_STATUS ( 'not_yet_approved' ) ;
#121 = DIRECTION ( 'NONE',  ( -3.491481338843133355E-15, 1.224646799147353207E-16, -1.000000000000000000 ) ) ;
#122 = DIRECTION ( 'NONE',  ( 0.0000000000000000000, 1.000000000000000000, 0.0000000000000000000 ) ) ;
#123 = LOCAL_TIME ( 13, 36, 1.000000000000000000, #202 ) ;
#124 = PRODUCT_DEFINITION ( 'UNKNOWN', '', #162, #257 ) ;
#125 = FACE_OUTER_BOUND ( 'NONE', #132, .T. ) ;
#126 = PERSON_AND_ORGANIZATION ( #82, #86 ) ;
#127 = CARTESIAN_POINT ( 'NONE',  ( 8.379555213223520053E-14, 2.199999999999997513, 24.00000000000000000 ) ) ;
#128 = ADVANCED_FACE ( 'NONE', ( #258, #137 ), #177, .T. ) ;
#129 =( NAMED_UNIT ( * ) SI_UNIT ( $, .STERADIAN. ) SOLID_ANGLE_UNIT ( ) );
#130 = CYLINDRICAL_SURFACE ( 'NONE', #213, 2.200000000000004174 ) ;
#131 = CALENDAR_DATE ( 2021, 13, 10 ) ;
#132 = EDGE_LOOP ( 'NONE', ( #210 ) ) ;
#133 = EDGE_LOOP ( 'NONE', ( #194 ) ) ;
#134 = EDGE_LOOP ( 'NONE', ( #91 ) ) ;
#135 = CC_DESIGN_PERSON_AND_ORGANIZATION_ASSIGNMENT ( #29, #107, ( #124 ) ) ;
#136 = CYLINDRICAL_SURFACE ( 'NONE', #242, 2.999999999999998224 ) ;
#137 = FACE_OUTER_BOUND ( 'NONE', #113, .T. ) ;
#138 = DIRECTION ( 'NONE',  ( -3.491481338843133355E-15, 1.224646799147353207E-16, -1.000000000000000000 ) ) ;
#139 = FACE_OUTER_BOUND ( 'NONE', #167, .T. ) ;
#140 = UNCERTAINTY_MEASURE_WITH_UNIT (LENGTH_MEASURE( 1.000000000000000082E-05 ), #248, 'distance_accuracy_value', 'NONE');
#141 = ADVANCED_FACE ( 'NONE', ( #238 ), #220, .T. ) ;
#142 = CARTESIAN_POINT ( 'NONE',  ( 2.795749617836621730E-15, -2.200000000000004174, 0.8007345153856570974 ) ) ;
#143 = AXIS2_PLACEMENT_3D ( 'NONE', #118, #172, #59 ) ;
#144 = CALENDAR_DATE ( 2021, 13, 10 ) ;
#145 = APPROVAL ( #120, 'UNSPECIFIED' ) ;
#146 =( NAMED_UNIT ( * ) PLANE_ANGLE_UNIT ( ) SI_UNIT ( $, .RADIAN. ) );
#147 = CALENDAR_DATE ( 2021, 13, 10 ) ;
#148 = EDGE_LOOP ( 'NONE', ( #68 ) ) ;
#149 = APPROVAL_STATUS ( 'not_yet_approved' ) ;
#150 = PERSON_AND_ORGANIZATION_ROLE ( 'design_owner' ) ;
#151 = DIRECTION ( 'NONE',  ( -3.491481338843133355E-15, 4.327174794786742882E-16, -1.000000000000000000 ) ) ;
#152 = DIRECTION ( 'NONE',  ( -3.491481338843133355E-15, 1.224646799147353207E-16, -1.000000000000000000 ) ) ;
#153 = EDGE_CURVE ( 'NONE', #190, #190, #111, .T. ) ;
#154 = CARTESIAN_POINT ( 'NONE',  ( 8.379555213223520053E-14, -1.038521950748818292E-14, 24.00000000000000000 ) ) ;
#155 = CARTESIAN_POINT ( 'NONE',  ( 8.379555213223520053E-14, -1.040834085586084257E-14, 24.00000000000000000 ) ) ;
#156 = AXIS2_PLACEMENT_3D ( 'NONE', #212, #21, #197 ) ;
#157 = FACE_OUTER_BOUND ( 'NONE', #134, .T. ) ;
#158 = DIRECTION ( 'NONE',  ( 0.0000000000000000000, 1.000000000000000000, 0.0000000000000000000 ) ) ;
#159 = CARTESIAN_POINT ( 'NONE',  ( 2.304377683636468267E-13, 2.299999999999992717, 66.00000000000000000 ) ) ;
#160 = AXIS2_PLACEMENT_3D ( 'NONE', #4, #247, #8 ) ;
#161 = APPROVAL_STATUS ( 'not_yet_approved' ) ;
#162 = PRODUCT_DEFINITION_FORMATION_WITH_SPECIFIED_SOURCE ( 'ANY', '', #13, .NOT_KNOWN. ) ;
#163 = CARTESIAN_POINT ( 'NONE',  ( 8.554129280165677352E-14, 2.333974596215560471, 24.50000000000000000 ) ) ;
#164 = COORDINATED_UNIVERSAL_TIME_OFFSET ( 1, 0, .AHEAD. ) ;
#165 = EDGE_LOOP ( 'NONE', ( #34 ) ) ;
#166 = EDGE_LOOP ( 'NONE', ( #55 ) ) ;
#167 = EDGE_LOOP ( 'NONE', ( #250 ) ) ;
#168 = PERSON_AND_ORGANIZATION ( #82, #86 ) ;
#169 = PLANE ( 'NONE',  #78 ) ;
#170 = LOCAL_TIME ( 13, 36, 1.000000000000000000, #50 ) ;
#171 = EDGE_LOOP ( 'NONE', ( #11 ) ) ;
#172 = DIRECTION ( 'NONE',  ( -3.491481338843133355E-15, 1.224646799147353207E-16, -1.000000000000000000 ) ) ;
#173 = DATE_AND_TIME ( #144, #123 ) ;
#174 = DIRECTION ( 'NONE',  ( 0.0000000000000000000, -1.000000000000000000, 0.0000000000000000000 ) ) ;
#175 = PLANE ( 'NONE',  #81 ) ;
#176 = MANIFOLD_SOLID_BREP ( 'Corps-Déplacer/Copier1[2]', #102 ) ;
#177 = CONICAL_SURFACE ( 'NONE', #64, 3.500000000000009770, 0.5235987755983001479 ) ;
#178 = AXIS2_PLACEMENT_3D ( 'NONE', #262, #80, #158 ) ;
#179 = DIRECTION ( 'NONE',  ( 1.561406517740093421E-30, 1.000000000000000000, 4.327174794786742882E-16 ) ) ;
#180 = CIRCLE ( 'NONE', #38, 2.999999999999998224 ) ;
#181 = DIRECTION ( 'NONE',  ( 1.510825004591027679E-30, 1.000000000000000000, 4.327174794786742389E-16 ) ) ;
#182 = PERSON_AND_ORGANIZATION ( #82, #86 ) ;
#183 = CC_DESIGN_PERSON_AND_ORGANIZATION_ASSIGNMENT ( #182, #31, ( #162 ) ) ;
#184 = PERSON_AND_ORGANIZATION ( #82, #86 ) ;
#185 = CIRCLE ( 'NONE', #231, 2.200000000000004174 ) ;
#186 = DATE_AND_TIME ( #87, #170 ) ;
#187 = CALENDAR_DATE ( 2021, 13, 10 ) ;
#188 = ORIENTED_EDGE ( 'NONE', *, *, #36, .F. ) ;
#189 = ADVANCED_FACE ( 'NONE', ( #216, #40 ), #255, .T. ) ;
#190 = VERTEX_POINT ( 'NONE', #127 ) ;
#191 = EDGE_LOOP ( 'NONE', ( #74 ) ) ;
#192 = ORIENTED_EDGE ( 'NONE', *, *, #119, .F. ) ;
#193 = ADVANCED_FACE ( 'NONE', ( #77, #18 ), #136, .T. ) ;
#194 = ORIENTED_EDGE ( 'NONE', *, *, #153, .T. ) ;
#195 = DIRECTION ( 'NONE',  ( -3.491481338843133355E-15, 1.224646799147353207E-16, -1.000000000000000000 ) ) ;
#196 = AXIS2_PLACEMENT_3D ( 'NONE', #235, #56, #252 ) ;
#197 = DIRECTION ( 'NONE',  ( -4.275831445896958607E-31, -1.000000000000000000, -1.224646799147353207E-16 ) ) ;
#198 = DIRECTION ( 'NONE',  ( 0.0000000000000000000, -1.000000000000000000, 0.0000000000000000000 ) ) ;
#199 = DIRECTION ( 'NONE',  ( 0.0000000000000000000, -1.000000000000000000, 0.0000000000000000000 ) ) ;
#200 = CC_DESIGN_PERSON_AND_ORGANIZATION_ASSIGNMENT ( #253, #46, ( #246 ) ) ;
#201 = DIRECTION ( 'NONE',  ( -3.491481338843133355E-15, 4.327174794786742882E-16, -1.000000000000000000 ) ) ;
#202 = COORDINATED_UNIVERSAL_TIME_OFFSET ( 1, 0, .AHEAD. ) ;
#203 = APPROVAL_PERSON_ORGANIZATION ( #126, #20, #204 ) ;
#204 = APPROVAL_ROLE ( '' ) ;
#205 = CARTESIAN_POINT ( 'NONE',  ( 2.304377683636468267E-13, -8.082668874372532400E-15, 66.00000000000000000 ) ) ;
#206 = PRODUCT_RELATED_PRODUCT_CATEGORY ( 'detail', '', ( #13 ) ) ;
#207 = EDGE_LOOP ( 'NONE', ( #254 ) ) ;
#208 = SHAPE_DEFINITION_REPRESENTATION ( #42, #100 ) ;
#209 =( GEOMETRIC_REPRESENTATION_CONTEXT ( 3 ) GLOBAL_UNCERTAINTY_ASSIGNED_CONTEXT ( ( #140 ) ) GLOBAL_UNIT_ASSIGNED_CONTEXT ( ( #248, #146, #129 ) ) REPRESENTATION_CONTEXT ( 'NONE', 'WORKASPACE' ) );
#210 = ORIENTED_EDGE ( 'NONE', *, *, #93, .F. ) ;
#211 = CARTESIAN_POINT ( 'NONE',  ( 5.935518276033326704E-14, 2.249639673992780117E-32, 17.00000000000000000 ) ) ;
#212 = CARTESIAN_POINT ( 'NONE',  ( 5.935518276033326704E-14, 2.249639673992780117E-32, 17.00000000000000000 ) ) ;
#213 = AXIS2_PLACEMENT_3D ( 'NONE', #9, #151, #234 ) ;
#214 = DIRECTION ( 'NONE',  ( 3.491481338843133355E-15, -4.327174794786742882E-16, 1.000000000000000000 ) ) ;
#215 = EDGE_CURVE ( 'NONE', #67, #67, #185, .T. ) ;
#216 = FACE_OUTER_BOUND ( 'NONE', #95, .T. ) ;
#217 = TOROIDAL_SURFACE ( 'NONE', #19, 3.200000000000007727, 0.9999999999999985567 ) ;
#218 = LOCAL_TIME ( 13, 36, 1.000000000000000000, #164 ) ;
#219 = ADVANCED_FACE ( 'NONE', ( #237 ), #175, .F. ) ;
#220 = PLANE ( 'NONE',  #156 ) ;
#221 = VERTEX_POINT ( 'NONE', #116 ) ;
#222 = DATE_AND_TIME ( #147, #72 ) ;
#223 = CC_DESIGN_APPROVAL ( #145, ( #246 ) ) ;
#224 = CIRCLE ( 'NONE', #232, 3.000000000000000444 ) ;
#225 = APPROVAL_DATE_TIME ( #222, #44 ) ;
#226 = ADVANCED_FACE ( 'NONE', ( #79, #157 ), #217, .F. ) ;
#227 = CARTESIAN_POINT ( 'NONE',  ( 2.279937314264566018E-13, -7.996943598432214956E-15, 65.29999999999999716 ) ) ;
#228 = CARTESIAN_POINT ( 'NONE',  ( 3.812385842504470444E-15, -1.337204947137066162E-16, 1.091910702798619459 ) ) ;
#229 = DATE_TIME_ROLE ( 'classification_date' ) ;
#230 = EDGE_CURVE ( 'NONE', #105, #105, #22, .T. ) ;
#231 = AXIS2_PLACEMENT_3D ( 'NONE', #259, #101, #199 ) ;
#232 = AXIS2_PLACEMENT_3D ( 'NONE', #227, #152, #12 ) ;
#233 = CC_DESIGN_SECURITY_CLASSIFICATION ( #246, ( #162 ) ) ;
#234 = DIRECTION ( 'NONE',  ( 1.510825004591027679E-30, 1.000000000000000000, 4.327174794786742389E-16 ) ) ;
#235 = CARTESIAN_POINT ( 'NONE',  ( 2.795749617836622519E-15, -9.806169612338522414E-17, 0.8007345153856573194 ) ) ;
#236 = COORDINATED_UNIVERSAL_TIME_OFFSET ( 1, 0, .AHEAD. ) ;
#237 = FACE_OUTER_BOUND ( 'NONE', #207, .T. ) ;
#238 = FACE_OUTER_BOUND ( 'NONE', #7, .T. ) ;
#239 = AXIS2_PLACEMENT_3D ( 'NONE', #228, #16, #76 ) ;
#240 = DIRECTION ( 'NONE',  ( 3.491481338843133355E-15, -4.327174794786742882E-16, 1.000000000000000000 ) ) ;
#241 = CC_DESIGN_DATE_AND_TIME_ASSIGNMENT ( #173, #229, ( #246 ) ) ;
#242 = AXIS2_PLACEMENT_3D ( 'NONE', #58, #121, #97 ) ;
#243 = AXIS2_PLACEMENT_3D ( 'NONE', #205, #114, #30 ) ;
#244 = AXIS2_PLACEMENT_3D ( 'NONE', #39, #104, #181 ) ;
#245 = VERTEX_POINT ( 'NONE', #2 ) ;
#246 = SECURITY_CLASSIFICATION ( '', '', #90 ) ;
#247 = DIRECTION ( 'NONE',  ( 0.0000000000000000000, 0.0000000000000000000, 1.000000000000000000 ) ) ;
#248 =( LENGTH_UNIT ( ) NAMED_UNIT ( * ) SI_UNIT ( .MILLI., .METRE. ) );
#249 = APPROVAL_DATE_TIME ( #66, #20 ) ;
#250 = ORIENTED_EDGE ( 'NONE', *, *, #215, .T. ) ;
#251 = APPLICATION_PROTOCOL_DEFINITION ( 'international standard', 'config_control_design', 1994, #51 ) ;
#252 = DIRECTION ( 'NONE',  ( -3.501690807976786011E-31, -1.000000000000000000, -9.856383386231840338E-17 ) ) ;
#253 = PERSON_AND_ORGANIZATION ( #82, #86 ) ;
#254 = ORIENTED_EDGE ( 'NONE', *, *, #65, .F. ) ;
#255 = CONICAL_SURFACE ( 'NONE', #143, 2.300000000000000711, 0.7853981633974437271 ) ;
#256 = ORIENTED_EDGE ( 'NONE', *, *, #215, .F. ) ;
#257 = DESIGN_CONTEXT ( 'detailed design', #51, 'design' ) ;
#258 = FACE_BOUND ( 'NONE', #171, .T. ) ;
#259 = CARTESIAN_POINT ( 'NONE',  ( 5.935518276033326704E-14, -7.356197151137462899E-15, 17.00000000000000000 ) ) ;
#260 = DIRECTION ( 'NONE',  ( 4.275831445896958607E-31, 1.000000000000000000, 1.224646799147353207E-16 ) ) ;
#261 = AXIS2_PLACEMENT_3D ( 'NONE', #154, #201, #122 ) ;
#262 = CARTESIAN_POINT ( 'NONE',  ( 8.554129280165677352E-14, -1.060157824722752006E-14, 24.50000000000000000 ) ) ;
#263 = ADVANCED_FACE ( 'NONE', ( #139, #125 ), #25, .T. ) ;
ENDSEC;
END-ISO-10303-21;
