ISO-10303-21;
HEADER;
FILE_DESCRIPTION (( 'STEP AP203' ),
    '1' );
FILE_NAME ('43322.step',
    '2021-10-13T11:36:00',
    ( '' ),
    ( '' ),
    'SwSTEP 2.0',
    'SolidWorks 2019',
    '' );
FILE_SCHEMA (( 'CONFIG_CONTROL_DESIGN' ));
ENDSEC;

DATA;
#1 = EDGE_LOOP ( 'NONE', ( #255 ) ) ;
#2 = CYLINDRICAL_SURFACE ( 'NONE', #102, 2.150000000000003908 ) ;
#3 = AXIS2_PLACEMENT_3D ( 'NONE', #182, #144, #33 ) ;
#4 = VERTEX_POINT ( 'NONE', #107 ) ;
#5 = ADVANCED_FACE ( 'NONE', ( #140, #21 ), #241, .T. ) ;
#6 = DIRECTION ( 'NONE',  ( -3.491481338843133355E-15, 4.327174794786742882E-16, -1.000000000000000000 ) ) ;
#7 = DIRECTION ( 'NONE',  ( 1.562015933561166983E-30, 1.000000000000000000, 4.327174794786743375E-16 ) ) ;
#8 = AXIS2_PLACEMENT_3D ( 'NONE', #101, #180, #99 ) ;
#9 =( GEOMETRIC_REPRESENTATION_CONTEXT ( 3 ) GLOBAL_UNCERTAINTY_ASSIGNED_CONTEXT ( ( #217 ) ) GLOBAL_UNIT_ASSIGNED_CONTEXT ( ( #222, #186, #12 ) ) REPRESENTATION_CONTEXT ( 'NONE', 'WORKASPACE' ) );
#10 = FACE_OUTER_BOUND ( 'NONE', #139, .T. ) ;
#11 = MECHANICAL_CONTEXT ( 'NONE', #169, 'mechanical' ) ;
#12 =( NAMED_UNIT ( * ) SI_UNIT ( $, .STERADIAN. ) SOLID_ANGLE_UNIT ( ) );
#13 = ORIENTED_EDGE ( 'NONE', *, *, #72, .F. ) ;
#14 = ADVANCED_FACE ( 'NONE', ( #162 ), #261, .T. ) ;
#15 = PERSON_AND_ORGANIZATION_ROLE ( 'creator' ) ;
#16 = AXIS2_PLACEMENT_3D ( 'NONE', #208, #247, #127 ) ;
#17 = DIRECTION ( 'NONE',  ( 0.0000000000000000000, -1.000000000000000000, 0.0000000000000000000 ) ) ;
#18 = CARTESIAN_POINT ( 'NONE',  ( 9.289511288531568240E-14, -1.151297549736860338E-14, 26.60621778264910375 ) ) ;
#19 = ORIENTED_EDGE ( 'NONE', *, *, #113, .T. ) ;
#20 = DIRECTION ( 'NONE',  ( 1.510825004591027679E-30, 1.000000000000000000, 4.327174794786743375E-16 ) ) ;
#21 = FACE_OUTER_BOUND ( 'NONE', #134, .T. ) ;
#22 = APPROVAL_PERSON_ORGANIZATION ( #192, #252, #193 ) ;
#23 = CARTESIAN_POINT ( 'NONE',  ( 2.304377683636468267E-13, 2.299999999999992717, 66.00000000000000000 ) ) ;
#24 = FACE_OUTER_BOUND ( 'NONE', #60, .T. ) ;
#25 = CARTESIAN_POINT ( 'NONE',  ( 8.554129280165677352E-14, 2.283974596215560204, 24.50000000000000000 ) ) ;
#26 = CYLINDRICAL_SURFACE ( 'NONE', #84, 2.150000000000003908 ) ;
#27 = CARTESIAN_POINT ( 'NONE',  ( 8.987140134903816545E-14, -1.113823116747849144E-14, 25.74019237886464495 ) ) ;
#28 = DATE_AND_TIME ( #213, #52 ) ;
#29 = ADVANCED_FACE ( 'NONE', ( #34, #119 ), #143, .T. ) ;
#30 = CALENDAR_DATE ( 2021, 13, 10 ) ;
#31 = ADVANCED_BREP_SHAPE_REPRESENTATION ( '43322', ( #81, #175, #78 ), #9 ) ;
#32 = EDGE_LOOP ( 'NONE', ( #215 ) ) ;
#33 = DIRECTION ( 'NONE',  ( -4.275831445896958607E-31, -1.000000000000000000, -1.224646799147353207E-16 ) ) ;
#34 = FACE_BOUND ( 'NONE', #1, .T. ) ;
#35 = EDGE_LOOP ( 'NONE', ( #75 ) ) ;
#36 = TOROIDAL_SURFACE ( 'NONE', #129, 3.150000000000007905, 0.9999999999999988898 ) ;
#37 = APPROVAL ( #158, 'UNSPECIFIED' ) ;
#38 = DIRECTION ( 'NONE',  ( 0.0000000000000000000, -1.000000000000000000, 0.0000000000000000000 ) ) ;
#39 = CARTESIAN_POINT ( 'NONE',  ( 8.554129280165677352E-14, -1.060157824722752006E-14, 24.50000000000000000 ) ) ;
#40 = VERTEX_POINT ( 'NONE', #25 ) ;
#41 = CLOSED_SHELL ( 'NONE', ( #5, #218, #137, #160, #29, #154, #257 ) ) ;
#42 = CIRCLE ( 'NONE', #67, 2.283974596215570863 ) ;
#43 = FACE_BOUND ( 'NONE', #82, .T. ) ;
#44 = CARTESIAN_POINT ( 'NONE',  ( 3.812385842504470444E-15, -1.337204947137066162E-16, 1.091910702798619459 ) ) ;
#45 = FACE_OUTER_BOUND ( 'NONE', #32, .T. ) ;
#46 = VERTEX_POINT ( 'NONE', #125 ) ;
#47 = CC_DESIGN_SECURITY_CLASSIFICATION ( #223, ( #236 ) ) ;
#48 = PERSON_AND_ORGANIZATION ( #100, #195 ) ;
#49 = APPLICATION_PROTOCOL_DEFINITION ( 'international standard', 'config_control_design', 1994, #169 ) ;
#50 = EDGE_CURVE ( 'NONE', #40, #40, #42, .T. ) ;
#51 = SHAPE_DEFINITION_REPRESENTATION ( #212, #31 ) ;
#52 = LOCAL_TIME ( 13, 36, 0.0000000000000000000, #66 ) ;
#53 = APPROVAL_STATUS ( 'not_yet_approved' ) ;
#54 = DIRECTION ( 'NONE',  ( -3.583125477929734788E-31, -1.000000000000000000, -1.008560160451630249E-16 ) ) ;
#55 = ORIENTED_EDGE ( 'NONE', *, *, #50, .T. ) ;
#56 = DIRECTION ( 'NONE',  ( -3.491481338843133355E-15, 1.224646799147353207E-16, -1.000000000000000000 ) ) ;
#57 = EDGE_CURVE ( 'NONE', #88, #88, #177, .T. ) ;
#58 = EDGE_LOOP ( 'NONE', ( #120 ) ) ;
#59 = AXIS2_PLACEMENT_3D ( 'NONE', #18, #80, #17 ) ;
#60 = EDGE_LOOP ( 'NONE', ( #83 ) ) ;
#61 = FACE_OUTER_BOUND ( 'NONE', #216, .T. ) ;
#62 = PLANE ( 'NONE',  #16 ) ;
#63 = CARTESIAN_POINT ( 'NONE',  ( 0.0000000000000000000, 0.0000000000000000000, 0.0000000000000000000 ) ) ;
#64 = PRODUCT_RELATED_PRODUCT_CATEGORY ( 'detail', '', ( #262 ) ) ;
#65 = DIRECTION ( 'NONE',  ( 0.0000000000000000000, 1.000000000000000000, 0.0000000000000000000 ) ) ;
#66 = COORDINATED_UNIVERSAL_TIME_OFFSET ( 1, 0, .AHEAD. ) ;
#67 = AXIS2_PLACEMENT_3D ( 'NONE', #39, #240, #123 ) ;
#68 = PERSON_AND_ORGANIZATION ( #100, #195 ) ;
#69 = APPROVAL_DATE_TIME ( #176, #37 ) ;
#70 = APPROVAL_ROLE ( '' ) ;
#71 = DATE_TIME_ROLE ( 'classification_date' ) ;
#72 = EDGE_CURVE ( 'NONE', #149, #149, #126, .T. ) ;
#73 = ORIENTED_EDGE ( 'NONE', *, *, #72, .T. ) ;
#74 = APPLICATION_CONTEXT ( 'configuration controlled 3d designs of mechanical parts and assemblies' ) ;
#75 = ORIENTED_EDGE ( 'NONE', *, *, #57, .T. ) ;
#76 = AXIS2_PLACEMENT_3D ( 'NONE', #239, #142, #38 ) ;
#77 = APPROVAL_PERSON_ORGANIZATION ( #151, #37, #254 ) ;
#78 = AXIS2_PLACEMENT_3D ( 'NONE', #190, #229, #214 ) ;
#79 = APPROVAL ( #189, 'UNSPECIFIED' ) ;
#80 = DIRECTION ( 'NONE',  ( 3.491481338843133355E-15, -4.327174794786742882E-16, 1.000000000000000000 ) ) ;
#81 = MANIFOLD_SOLID_BREP ( 'Corps-Déplacer/Copier1[1]', #41 ) ;
#82 = EDGE_LOOP ( 'NONE', ( #220 ) ) ;
#83 = ORIENTED_EDGE ( 'NONE', *, *, #260, .T. ) ;
#84 = AXIS2_PLACEMENT_3D ( 'NONE', #63, #206, #128 ) ;
#85 = FACE_OUTER_BOUND ( 'NONE', #58, .T. ) ;
#86 = CARTESIAN_POINT ( 'NONE',  ( 8.379555213223520053E-14, -1.040834085586084257E-14, 24.00000000000000000 ) ) ;
#87 = LOCAL_TIME ( 13, 36, 0.0000000000000000000, #152 ) ;
#88 = VERTEX_POINT ( 'NONE', #209 ) ;
#89 = ADVANCED_FACE ( 'NONE', ( #201, #105 ), #2, .T. ) ;
#90 = FACE_OUTER_BOUND ( 'NONE', #35, .T. ) ;
#91 = PERSON_AND_ORGANIZATION_ROLE ( 'design_owner' ) ;
#92 = CC_DESIGN_DATE_AND_TIME_ASSIGNMENT ( #28, #71, ( #223 ) ) ;
#93 = COORDINATED_UNIVERSAL_TIME_OFFSET ( 1, 0, .AHEAD. ) ;
#94 = SECURITY_CLASSIFICATION_LEVEL ( 'unclassified' ) ;
#95 = EDGE_LOOP ( 'NONE', ( #73 ) ) ;
#96 = PERSON_AND_ORGANIZATION ( #100, #195 ) ;
#97 = CC_DESIGN_PERSON_AND_ORGANIZATION_ASSIGNMENT ( #68, #133, ( #236 ) ) ;
#98 = LOCAL_TIME ( 13, 36, 0.0000000000000000000, #112 ) ;
#99 = DIRECTION ( 'NONE',  ( 0.0000000000000000000, -1.000000000000000000, 0.0000000000000000000 ) ) ;
#100 = PERSON ( 'UNSPECIFIED', 'UNSPECIFIED', 'UNSPECIFIED', ('UNSPECIFIED'), ('UNSPECIFIED'), ('UNSPECIFIED') ) ;
#101 = CARTESIAN_POINT ( 'NONE',  ( 5.935518276033326704E-14, -7.356197151137462899E-15, 17.00000000000000000 ) ) ;
#102 = AXIS2_PLACEMENT_3D ( 'NONE', #121, #197, #20 ) ;
#103 = CIRCLE ( 'NONE', #258, 2.150000000000007461 ) ;
#104 = ORIENTED_EDGE ( 'NONE', *, *, #184, .T. ) ;
#105 = FACE_OUTER_BOUND ( 'NONE', #231, .T. ) ;
#106 = LOCAL_TIME ( 13, 36, 0.0000000000000000000, #93 ) ;
#107 = CARTESIAN_POINT ( 'NONE',  ( 2.279937314264566018E-13, 2.999999999999992895, 65.29999999999999716 ) ) ;
#108 = CARTESIAN_POINT ( 'NONE',  ( 5.935518276033326704E-14, -2.150000000000011458, 17.00000000000000000 ) ) ;
#109 = AXIS2_PLACEMENT_3D ( 'NONE', #44, #145, #111 ) ;
#110 = DIRECTION ( 'NONE',  ( -3.491481338843133355E-15, 1.224646799147353207E-16, -1.000000000000000000 ) ) ;
#111 = DIRECTION ( 'NONE',  ( -5.135813185032639159E-31, -1.000000000000000000, -1.445602896647342121E-16 ) ) ;
#112 = COORDINATED_UNIVERSAL_TIME_OFFSET ( 1, 0, .AHEAD. ) ;
#113 = EDGE_CURVE ( 'NONE', #46, #46, #138, .T. ) ;
#114 = CIRCLE ( 'NONE', #155, 2.300000000000000711 ) ;
#115 = CALENDAR_DATE ( 2021, 13, 10 ) ;
#116 = LOCAL_TIME ( 13, 36, 0.0000000000000000000, #256 ) ;
#117 = DATE_TIME_ROLE ( 'creation_date' ) ;
#118 = CIRCLE ( 'NONE', #174, 3.000000000000000444 ) ;
#119 = FACE_OUTER_BOUND ( 'NONE', #163, .T. ) ;
#120 = ORIENTED_EDGE ( 'NONE', *, *, #260, .F. ) ;
#121 = CARTESIAN_POINT ( 'NONE',  ( 0.0000000000000000000, 0.0000000000000000000, 0.0000000000000000000 ) ) ;
#122 = AXIS2_PLACEMENT_3D ( 'NONE', #166, #243, #188 ) ;
#123 = DIRECTION ( 'NONE',  ( 0.0000000000000000000, 1.000000000000000000, 0.0000000000000000000 ) ) ;
#124 = EDGE_LOOP ( 'NONE', ( #164 ) ) ;
#125 = CARTESIAN_POINT ( 'NONE',  ( 2.732209853794879977E-15, -2.150000000000003908, 0.7825360036723466584 ) ) ;
#126 = CIRCLE ( 'NONE', #76, 2.150000000000003908 ) ;
#127 = DIRECTION ( 'NONE',  ( 4.275831445896958607E-31, 1.000000000000000000, 1.224646799147353207E-16 ) ) ;
#128 = DIRECTION ( 'NONE',  ( 1.510825004591027679E-30, 1.000000000000000000, 4.327174794786743375E-16 ) ) ;
#129 = AXIS2_PLACEMENT_3D ( 'NONE', #86, #187, #7 ) ;
#130 = DIRECTION ( 'NONE',  ( 3.491481338843133355E-15, -4.327174794786742882E-16, 1.000000000000000000 ) ) ;
#131 = DATE_AND_TIME ( #115, #87 ) ;
#132 = EDGE_CURVE ( 'NONE', #203, #203, #114, .T. ) ;
#133 = PERSON_AND_ORGANIZATION_ROLE ( 'design_supplier' ) ;
#134 = EDGE_LOOP ( 'NONE', ( #104 ) ) ;
#135 = DESIGN_CONTEXT ( 'detailed design', #74, 'design' ) ;
#136 = PERSON_AND_ORGANIZATION_ROLE ( 'classification_officer' ) ;
#137 = ADVANCED_FACE ( 'NONE', ( #10 ), #62, .F. ) ;
#138 = CIRCLE ( 'NONE', #246, 2.150000000000003908 ) ;
#139 = EDGE_LOOP ( 'NONE', ( #219 ) ) ;
#140 = FACE_OUTER_BOUND ( 'NONE', #124, .T. ) ;
#141 = DIRECTION ( 'NONE',  ( -3.491481338843133355E-15, 1.224646799147353207E-16, -1.000000000000000000 ) ) ;
#142 = DIRECTION ( 'NONE',  ( -3.491481338843133355E-15, 1.224646799147353207E-16, -1.000000000000000000 ) ) ;
#143 = CONICAL_SURFACE ( 'NONE', #59, 3.500000000000010214, 0.5235987755983001479 ) ;
#144 = DIRECTION ( 'NONE',  ( 3.491481338843133355E-15, -1.224646799147353207E-16, 1.000000000000000000 ) ) ;
#145 = DIRECTION ( 'NONE',  ( 3.491481338843133355E-15, -1.224646799147353207E-16, 1.000000000000000000 ) ) ;
#146 = CONICAL_SURFACE ( 'NONE', #122, 2.300000000000000711, 0.7853981633974437271 ) ;
#147 = CARTESIAN_POINT ( 'NONE',  ( 5.935518276033326704E-14, 2.249639673992780117E-32, 17.00000000000000000 ) ) ;
#148 = DIRECTION ( 'NONE',  ( 0.0000000000000000000, -1.000000000000000000, 0.0000000000000000000 ) ) ;
#149 = VERTEX_POINT ( 'NONE', #108 ) ;
#150 = DATE_AND_TIME ( #230, #98 ) ;
#151 = PERSON_AND_ORGANIZATION ( #100, #195 ) ;
#152 = COORDINATED_UNIVERSAL_TIME_OFFSET ( 1, 0, .AHEAD. ) ;
#153 = ORIENTED_EDGE ( 'NONE', *, *, #184, .F. ) ;
#154 = ADVANCED_FACE ( 'NONE', ( #85, #226 ), #36, .F. ) ;
#155 = AXIS2_PLACEMENT_3D ( 'NONE', #263, #56, #200 ) ;
#156 = PERSON_AND_ORGANIZATION ( #100, #195 ) ;
#157 = AXIS2_PLACEMENT_3D ( 'NONE', #147, #207, #221 ) ;
#158 = APPROVAL_STATUS ( 'not_yet_approved' ) ;
#159 = CARTESIAN_POINT ( 'NONE',  ( 2.732209853794880766E-15, -9.583302121149009784E-17, 0.7825360036723468804 ) ) ;
#160 = ADVANCED_FACE ( 'NONE', ( #24, #45 ), #26, .T. ) ;
#161 = DIRECTION ( 'NONE',  ( -3.491481338843133355E-15, 1.224646799147353207E-16, -1.000000000000000000 ) ) ;
#162 = FACE_OUTER_BOUND ( 'NONE', #181, .T. ) ;
#163 = EDGE_LOOP ( 'NONE', ( #202 ) ) ;
#164 = ORIENTED_EDGE ( 'NONE', *, *, #172, .T. ) ;
#165 = CARTESIAN_POINT ( 'NONE',  ( 2.279937314264566018E-13, -7.996943598432214956E-15, 65.29999999999999716 ) ) ;
#166 = CARTESIAN_POINT ( 'NONE',  ( 2.304377683636468267E-13, -8.082668874372532400E-15, 66.00000000000000000 ) ) ;
#167 = CLOSED_SHELL ( 'NONE', ( #237, #89, #14 ) ) ;
#168 = APPROVAL_PERSON_ORGANIZATION ( #156, #79, #70 ) ;
#169 = APPLICATION_CONTEXT ( 'configuration controlled 3d designs of mechanical parts and assemblies' ) ;
#170 = VERTEX_POINT ( 'NONE', #185 ) ;
#171 = PLANE ( 'NONE',  #157 ) ;
#172 = EDGE_CURVE ( 'NONE', #245, #245, #250, .T. ) ;
#173 = PERSON_AND_ORGANIZATION ( #100, #195 ) ;
#174 = AXIS2_PLACEMENT_3D ( 'NONE', #165, #110, #244 ) ;
#175 = MANIFOLD_SOLID_BREP ( 'Corps-Déplacer/Copier1[2]', #167 ) ;
#176 = DATE_AND_TIME ( #233, #116 ) ;
#177 = CIRCLE ( 'NONE', #8, 2.150000000000003908 ) ;
#178 = DATE_AND_TIME ( #30, #106 ) ;
#179 = EDGE_LOOP ( 'NONE', ( #19 ) ) ;
#180 = DIRECTION ( 'NONE',  ( -3.491481338843133355E-15, 1.224646799147353207E-16, -1.000000000000000000 ) ) ;
#181 = EDGE_LOOP ( 'NONE', ( #13 ) ) ;
#182 = CARTESIAN_POINT ( 'NONE',  ( 5.935518276033326704E-14, 2.249639673992780117E-32, 17.00000000000000000 ) ) ;
#183 = CARTESIAN_POINT ( 'NONE',  ( 0.0000000000000000000, 0.0000000000000000000, 0.0000000000000000000 ) ) ;
#184 = EDGE_CURVE ( 'NONE', #4, #4, #118, .T. ) ;
#185 = CARTESIAN_POINT ( 'NONE',  ( 8.379555213223520053E-14, 2.149999999999996803, 24.00000000000000000 ) ) ;
#186 =( NAMED_UNIT ( * ) PLANE_ANGLE_UNIT ( ) SI_UNIT ( $, .RADIAN. ) );
#187 = DIRECTION ( 'NONE',  ( -3.491481338843133355E-15, 4.327174794786742882E-16, -1.000000000000000000 ) ) ;
#188 = DIRECTION ( 'NONE',  ( 0.0000000000000000000, 1.000000000000000000, 0.0000000000000000000 ) ) ;
#189 = APPROVAL_STATUS ( 'not_yet_approved' ) ;
#190 = CARTESIAN_POINT ( 'NONE',  ( 0.0000000000000000000, 0.0000000000000000000, 0.0000000000000000000 ) ) ;
#191 = CC_DESIGN_PERSON_AND_ORGANIZATION_ASSIGNMENT ( #173, #249, ( #232 ) ) ;
#192 = PERSON_AND_ORGANIZATION ( #100, #195 ) ;
#193 = APPROVAL_ROLE ( '' ) ;
#194 = AXIS2_PLACEMENT_3D ( 'NONE', #27, #130, #148 ) ;
#195 = ORGANIZATION ( 'UNSPECIFIED', 'UNSPECIFIED', '' ) ;
#196 = CC_DESIGN_PERSON_AND_ORGANIZATION_ASSIGNMENT ( #96, #15, ( #236 ) ) ;
#197 = DIRECTION ( 'NONE',  ( -3.491481338843133355E-15, 4.327174794786742882E-16, -1.000000000000000000 ) ) ;
#198 = EDGE_LOOP ( 'NONE', ( #55 ) ) ;
#199 = CONICAL_SURFACE ( 'NONE', #109, 2.999999999999993783, 1.221730476396026388 ) ;
#200 = DIRECTION ( 'NONE',  ( 0.0000000000000000000, 1.000000000000000000, 0.0000000000000000000 ) ) ;
#201 = FACE_OUTER_BOUND ( 'NONE', #95, .T. ) ;
#202 = ORIENTED_EDGE ( 'NONE', *, *, #172, .F. ) ;
#203 = VERTEX_POINT ( 'NONE', #23 ) ;
#204 = CC_DESIGN_PERSON_AND_ORGANIZATION_ASSIGNMENT ( #259, #136, ( #223 ) ) ;
#205 = CC_DESIGN_APPROVAL ( #79, ( #232 ) ) ;
#206 = DIRECTION ( 'NONE',  ( -3.491481338843133355E-15, 4.327174794786742882E-16, -1.000000000000000000 ) ) ;
#207 = DIRECTION ( 'NONE',  ( 3.491481338843133355E-15, -1.224646799147353207E-16, 1.000000000000000000 ) ) ;
#208 = CARTESIAN_POINT ( 'NONE',  ( 2.304377683636468267E-13, 1.724723750061124754E-32, 66.00000000000000000 ) ) ;
#209 = CARTESIAN_POINT ( 'NONE',  ( 5.935518276033326704E-14, -2.150000000000011458, 17.00000000000000000 ) ) ;
#210 = APPROVAL_DATE_TIME ( #131, #79 ) ;
#211 = APPLICATION_PROTOCOL_DEFINITION ( 'international standard', 'config_control_design', 1994, #74 ) ;
#212 = PRODUCT_DEFINITION_SHAPE ( 'NONE', 'NONE',  #232 ) ;
#213 = CALENDAR_DATE ( 2021, 13, 10 ) ;
#214 = DIRECTION ( 'NONE',  ( 1.000000000000000000, 0.0000000000000000000, 0.0000000000000000000 ) ) ;
#215 = ORIENTED_EDGE ( 'NONE', *, *, #57, .F. ) ;
#216 = EDGE_LOOP ( 'NONE', ( #153 ) ) ;
#217 = UNCERTAINTY_MEASURE_WITH_UNIT (LENGTH_MEASURE( 1.000000000000000082E-05 ), #222, 'distance_accuracy_value', 'NONE');
#218 = ADVANCED_FACE ( 'NONE', ( #61, #43 ), #146, .T. ) ;
#219 = ORIENTED_EDGE ( 'NONE', *, *, #132, .F. ) ;
#220 = ORIENTED_EDGE ( 'NONE', *, *, #132, .T. ) ;
#221 = DIRECTION ( 'NONE',  ( -4.275831445896958607E-31, -1.000000000000000000, -1.224646799147353207E-16 ) ) ;
#222 =( LENGTH_UNIT ( ) NAMED_UNIT ( * ) SI_UNIT ( .MILLI., .METRE. ) );
#223 = SECURITY_CLASSIFICATION ( '', '', #94 ) ;
#224 = FACE_OUTER_BOUND ( 'NONE', #179, .T. ) ;
#225 = CC_DESIGN_DATE_AND_TIME_ASSIGNMENT ( #178, #117, ( #232 ) ) ;
#226 = FACE_OUTER_BOUND ( 'NONE', #198, .T. ) ;
#227 = CARTESIAN_POINT ( 'NONE',  ( 8.987140134903816545E-14, -3.000000000000009770, 25.74019237886464495 ) ) ;
#228 = CC_DESIGN_APPROVAL ( #252, ( #236 ) ) ;
#229 = DIRECTION ( 'NONE',  ( 0.0000000000000000000, 0.0000000000000000000, 1.000000000000000000 ) ) ;
#230 = CALENDAR_DATE ( 2021, 13, 10 ) ;
#231 = EDGE_LOOP ( 'NONE', ( #234 ) ) ;
#232 = PRODUCT_DEFINITION ( 'UNKNOWN', '', #236, #135 ) ;
#233 = CALENDAR_DATE ( 2021, 13, 10 ) ;
#234 = ORIENTED_EDGE ( 'NONE', *, *, #113, .F. ) ;
#235 = AXIS2_PLACEMENT_3D ( 'NONE', #183, #161, #238 ) ;
#236 = PRODUCT_DEFINITION_FORMATION_WITH_SPECIFIED_SOURCE ( 'ANY', '', #262, .NOT_KNOWN. ) ;
#237 = ADVANCED_FACE ( 'NONE', ( #224 ), #199, .T. ) ;
#238 = DIRECTION ( 'NONE',  ( 4.275831445896958607E-31, 1.000000000000000000, 1.224646799147353454E-16 ) ) ;
#239 = CARTESIAN_POINT ( 'NONE',  ( 5.935518276033326704E-14, -7.356197151137462899E-15, 17.00000000000000000 ) ) ;
#240 = DIRECTION ( 'NONE',  ( -3.491481338843133355E-15, 4.327174794786742882E-16, -1.000000000000000000 ) ) ;
#241 = CYLINDRICAL_SURFACE ( 'NONE', #235, 2.999999999999998224 ) ;
#242 = CC_DESIGN_PERSON_AND_ORGANIZATION_ASSIGNMENT ( #48, #91, ( #262 ) ) ;
#243 = DIRECTION ( 'NONE',  ( -3.491481338843133355E-15, 1.224646799147353207E-16, -1.000000000000000000 ) ) ;
#244 = DIRECTION ( 'NONE',  ( 0.0000000000000000000, 1.000000000000000000, 0.0000000000000000000 ) ) ;
#245 = VERTEX_POINT ( 'NONE', #227 ) ;
#246 = AXIS2_PLACEMENT_3D ( 'NONE', #159, #141, #54 ) ;
#247 = DIRECTION ( 'NONE',  ( -3.491481338843133355E-15, 1.224646799147353207E-16, -1.000000000000000000 ) ) ;
#248 = CARTESIAN_POINT ( 'NONE',  ( 8.379555213223520053E-14, -1.038521950748818292E-14, 24.00000000000000000 ) ) ;
#249 = PERSON_AND_ORGANIZATION_ROLE ( 'creator' ) ;
#250 = CIRCLE ( 'NONE', #194, 2.999999999999998224 ) ;
#251 = CC_DESIGN_APPROVAL ( #37, ( #223 ) ) ;
#252 = APPROVAL ( #53, 'UNSPECIFIED' ) ;
#253 = APPROVAL_DATE_TIME ( #150, #252 ) ;
#254 = APPROVAL_ROLE ( '' ) ;
#255 = ORIENTED_EDGE ( 'NONE', *, *, #50, .F. ) ;
#256 = COORDINATED_UNIVERSAL_TIME_OFFSET ( 1, 0, .AHEAD. ) ;
#257 = ADVANCED_FACE ( 'NONE', ( #90 ), #171, .F. ) ;
#258 = AXIS2_PLACEMENT_3D ( 'NONE', #248, #6, #65 ) ;
#259 = PERSON_AND_ORGANIZATION ( #100, #195 ) ;
#260 = EDGE_CURVE ( 'NONE', #170, #170, #103, .T. ) ;
#261 = PLANE ( 'NONE',  #3 ) ;
#262 = PRODUCT ( '43322', '43322', '', ( #11 ) ) ;
#263 = CARTESIAN_POINT ( 'NONE',  ( 2.304377683636468267E-13, -8.082668874372532400E-15, 66.00000000000000000 ) ) ;
ENDSEC;
END-ISO-10303-21;
