ISO-10303-21;
HEADER;
FILE_DESCRIPTION (( 'STEP AP203' ),
    '1' );
FILE_NAME ('43321.step',
    '2021-10-13T11:36:00',
    ( '' ),
    ( '' ),
    'SwSTEP 2.0',
    'SolidWorks 2019',
    '' );
FILE_SCHEMA (( 'CONFIG_CONTROL_DESIGN' ));
ENDSEC;

DATA;
#1 = PERSON_AND_ORGANIZATION ( #80, #113 ) ;
#2 = CALENDAR_DATE ( 2021, 13, 10 ) ;
#3 = DATE_AND_TIME ( #101, #150 ) ;
#4 = ORIENTED_EDGE ( 'NONE', *, *, #106, .F. ) ;
#5 = COORDINATED_UNIVERSAL_TIME_OFFSET ( 1, 0, .AHEAD. ) ;
#6 = ORIENTED_EDGE ( 'NONE', *, *, #149, .T. ) ;
#7 = DIRECTION ( 'NONE',  ( 0.0000000000000000000, -1.000000000000000000, 0.0000000000000000000 ) ) ;
#8 = DIRECTION ( 'NONE',  ( 3.491481338843133355E-15, -4.327174794786742882E-16, 1.000000000000000000 ) ) ;
#9 = EDGE_LOOP ( 'NONE', ( #112 ) ) ;
#10 = FACE_OUTER_BOUND ( 'NONE', #175, .T. ) ;
#11 = DIRECTION ( 'NONE',  ( 0.0000000000000000000, -1.000000000000000000, 0.0000000000000000000 ) ) ;
#12 = PRODUCT_DEFINITION_FORMATION_WITH_SPECIFIED_SOURCE ( 'ANY', '', #173, .NOT_KNOWN. ) ;
#13 = FACE_OUTER_BOUND ( 'NONE', #176, .T. ) ;
#14 = CARTESIAN_POINT ( 'NONE',  ( 0.0000000000000000000, 0.0000000000000000000, 0.0000000000000000000 ) ) ;
#15 = CARTESIAN_POINT ( 'NONE',  ( 9.017377250266589064E-14, -3.000000000000009770, 25.82679491924308834 ) ) ;
#16 = CIRCLE ( 'NONE', #248, 2.100000000000004530 ) ;
#17 =( NAMED_UNIT ( * ) SI_UNIT ( $, .STERADIAN. ) SOLID_ANGLE_UNIT ( ) );
#18 = CIRCLE ( 'NONE', #27, 3.000000000000000444 ) ;
#19 = DESIGN_CONTEXT ( 'detailed design', #69, 'design' ) ;
#20 = CARTESIAN_POINT ( 'NONE',  ( 0.0000000000000000000, 0.0000000000000000000, 0.0000000000000000000 ) ) ;
#21 = CALENDAR_DATE ( 2021, 13, 10 ) ;
#22 = PERSON_AND_ORGANIZATION ( #80, #113 ) ;
#23 = EDGE_LOOP ( 'NONE', ( #168 ) ) ;
#24 = TOROIDAL_SURFACE ( 'NONE', #202, 3.100000000000008971, 0.9999999999999988898 ) ;
#25 = CC_DESIGN_PERSON_AND_ORGANIZATION_ASSIGNMENT ( #22, #82, ( #200 ) ) ;
#26 = DIRECTION ( 'NONE',  ( -3.491481338843133355E-15, 4.327174794786742882E-16, -1.000000000000000000 ) ) ;
#27 = AXIS2_PLACEMENT_3D ( 'NONE', #65, #111, #215 ) ;
#28 = DIRECTION ( 'NONE',  ( 0.0000000000000000000, 1.000000000000000000, 0.0000000000000000000 ) ) ;
#29 = DIRECTION ( 'NONE',  ( -3.491481338843133355E-15, 4.327174794786742882E-16, -1.000000000000000000 ) ) ;
#30 = FACE_OUTER_BOUND ( 'NONE', #211, .T. ) ;
#31 = ADVANCED_FACE ( 'NONE', ( #30 ), #198, .T. ) ;
#32 = CARTESIAN_POINT ( 'NONE',  ( 8.379555213223520053E-14, 2.099999999999998312, 24.00000000000000000 ) ) ;
#33 = CARTESIAN_POINT ( 'NONE',  ( 3.812385842504470444E-15, -1.337204947137066162E-16, 1.091910702798619459 ) ) ;
#34 = VERTEX_POINT ( 'NONE', #160 ) ;
#35 = VERTEX_POINT ( 'NONE', #133 ) ;
#36 = DATE_AND_TIME ( #21, #240 ) ;
#37 = EDGE_CURVE ( 'NONE', #35, #35, #238, .T. ) ;
#38 = DATE_AND_TIME ( #2, #62 ) ;
#39 = PERSON_AND_ORGANIZATION ( #80, #113 ) ;
#40 = CC_DESIGN_DATE_AND_TIME_ASSIGNMENT ( #36, #83, ( #48 ) ) ;
#41 = AXIS2_PLACEMENT_3D ( 'NONE', #153, #26, #236 ) ;
#42 = DIRECTION ( 'NONE',  ( -3.491481338843133355E-15, 1.224646799147353207E-16, -1.000000000000000000 ) ) ;
#43 = FACE_OUTER_BOUND ( 'NONE', #172, .T. ) ;
#44 = FACE_OUTER_BOUND ( 'NONE', #189, .T. ) ;
#45 = CARTESIAN_POINT ( 'NONE',  ( 2.304377683636468267E-13, -8.082668874372532400E-15, 66.00000000000000000 ) ) ;
#46 = CONICAL_SURFACE ( 'NONE', #68, 2.300000000000000711, 0.7853981633974437271 ) ;
#47 = EDGE_LOOP ( 'NONE', ( #66 ) ) ;
#48 = SECURITY_CLASSIFICATION ( '', '', #210 ) ;
#49 = APPROVAL ( #208, 'UNSPECIFIED' ) ;
#50 = CARTESIAN_POINT ( 'NONE',  ( 2.668670089753139803E-15, -2.100000000000004530, 0.7643374919590365524 ) ) ;
#51 = DIRECTION ( 'NONE',  ( 0.0000000000000000000, -1.000000000000000000, 0.0000000000000000000 ) ) ;
#52 = VERTEX_POINT ( 'NONE', #32 ) ;
#53 = CIRCLE ( 'NONE', #41, 2.233974596215571928 ) ;
#54 = APPROVAL_DATE_TIME ( #38, #171 ) ;
#55 = EDGE_CURVE ( 'NONE', #221, #221, #18, .T. ) ;
#56 = CONICAL_SURFACE ( 'NONE', #218, 3.500000000000010214, 0.5235987755983001479 ) ;
#57 = COORDINATED_UNIVERSAL_TIME_OFFSET ( 1, 0, .AHEAD. ) ;
#58 = CALENDAR_DATE ( 2021, 13, 10 ) ;
#59 = AXIS2_PLACEMENT_3D ( 'NONE', #197, #88, #254 ) ;
#60 = APPROVAL_DATE_TIME ( #249, #220 ) ;
#61 = CLOSED_SHELL ( 'NONE', ( #214, #85, #179, #250, #64, #116, #157 ) ) ;
#62 = LOCAL_TIME ( 13, 36, 0.0000000000000000000, #230 ) ;
#63 = ORIENTED_EDGE ( 'NONE', *, *, #233, .T. ) ;
#64 = ADVANCED_FACE ( 'NONE', ( #152, #195 ), #56, .T. ) ;
#65 = CARTESIAN_POINT ( 'NONE',  ( 2.279937314264566018E-13, -7.996943598432214956E-15, 65.29999999999999716 ) ) ;
#66 = ORIENTED_EDGE ( 'NONE', *, *, #134, .T. ) ;
#67 = EDGE_LOOP ( 'NONE', ( #84 ) ) ;
#68 = AXIS2_PLACEMENT_3D ( 'NONE', #45, #130, #155 ) ;
#69 = APPLICATION_CONTEXT ( 'configuration controlled 3d designs of mechanical parts and assemblies' ) ;
#70 = EDGE_LOOP ( 'NONE', ( #4 ) ) ;
#71 = AXIS2_PLACEMENT_3D ( 'NONE', #151, #239, #196 ) ;
#72 = CARTESIAN_POINT ( 'NONE',  ( 5.935518276033326704E-14, -2.100000000000012079, 17.00000000000000000 ) ) ;
#73 = CC_DESIGN_SECURITY_CLASSIFICATION ( #48, ( #12 ) ) ;
#74 = CYLINDRICAL_SURFACE ( 'NONE', #251, 2.100000000000004530 ) ;
#75 = DIRECTION ( 'NONE',  ( -3.491481338843133355E-15, 1.224646799147353207E-16, -1.000000000000000000 ) ) ;
#76 = VERTEX_POINT ( 'NONE', #50 ) ;
#77 = CYLINDRICAL_SURFACE ( 'NONE', #199, 2.999999999999998224 ) ;
#78 = APPROVAL_DATE_TIME ( #146, #49 ) ;
#79 = CC_DESIGN_PERSON_AND_ORGANIZATION_ASSIGNMENT ( #1, #229, ( #12 ) ) ;
#80 = PERSON ( 'UNSPECIFIED', 'UNSPECIFIED', 'UNSPECIFIED', ('UNSPECIFIED'), ('UNSPECIFIED'), ('UNSPECIFIED') ) ;
#81 = CALENDAR_DATE ( 2021, 13, 10 ) ;
#82 = PERSON_AND_ORGANIZATION_ROLE ( 'creator' ) ;
#83 = DATE_TIME_ROLE ( 'classification_date' ) ;
#84 = ORIENTED_EDGE ( 'NONE', *, *, #165, .F. ) ;
#85 = ADVANCED_FACE ( 'NONE', ( #43, #213 ), #46, .T. ) ;
#86 = EDGE_LOOP ( 'NONE', ( #177 ) ) ;
#87 = ORIENTED_EDGE ( 'NONE', *, *, #37, .T. ) ;
#88 = DIRECTION ( 'NONE',  ( 3.491481338843133355E-15, -1.224646799147353207E-16, 1.000000000000000000 ) ) ;
#89 = CC_DESIGN_PERSON_AND_ORGANIZATION_ASSIGNMENT ( #103, #190, ( #48 ) ) ;
#90 = AXIS2_PLACEMENT_3D ( 'NONE', #20, #99, #170 ) ;
#91 = DIRECTION ( 'NONE',  ( 1.562640213182753706E-30, 1.000000000000000000, 4.327174794786742882E-16 ) ) ;
#92 = FACE_OUTER_BOUND ( 'NONE', #67, .T. ) ;
#93 = DIRECTION ( 'NONE',  ( -3.491481338843133355E-15, 1.224646799147353207E-16, -1.000000000000000000 ) ) ;
#94 = PLANE ( 'NONE',  #110 ) ;
#95 = CC_DESIGN_PERSON_AND_ORGANIZATION_ASSIGNMENT ( #39, #143, ( #12 ) ) ;
#96 = MANIFOLD_SOLID_BREP ( 'Corps-Déplacer/Copier1[1]', #61 ) ;
#97 = APPROVAL_STATUS ( 'not_yet_approved' ) ;
#98 = AXIS2_PLACEMENT_3D ( 'NONE', #158, #117, #181 ) ;
#99 = DIRECTION ( 'NONE',  ( 0.0000000000000000000, 0.0000000000000000000, 1.000000000000000000 ) ) ;
#100 = PERSON_AND_ORGANIZATION_ROLE ( 'design_owner' ) ;
#101 = CALENDAR_DATE ( 2021, 13, 10 ) ;
#102 = EDGE_LOOP ( 'NONE', ( #156 ) ) ;
#103 = PERSON_AND_ORGANIZATION ( #80, #113 ) ;
#104 = CIRCLE ( 'NONE', #127, 2.999999999999998224 ) ;
#105 = EDGE_LOOP ( 'NONE', ( #193 ) ) ;
#106 = EDGE_CURVE ( 'NONE', #52, #52, #224, .T. ) ;
#107 = DIRECTION ( 'NONE',  ( -3.491481338843133355E-15, 4.327174794786742882E-16, -1.000000000000000000 ) ) ;
#108 = ORIENTED_EDGE ( 'NONE', *, *, #233, .F. ) ;
#109 = FACE_OUTER_BOUND ( 'NONE', #70, .T. ) ;
#110 = AXIS2_PLACEMENT_3D ( 'NONE', #119, #75, #261 ) ;
#111 = DIRECTION ( 'NONE',  ( -3.491481338843133355E-15, 1.224646799147353207E-16, -1.000000000000000000 ) ) ;
#112 = ORIENTED_EDGE ( 'NONE', *, *, #165, .T. ) ;
#113 = ORGANIZATION ( 'UNSPECIFIED', 'UNSPECIFIED', '' ) ;
#114 = DIRECTION ( 'NONE',  ( 3.491481338843133355E-15, -1.224646799147353207E-16, 1.000000000000000000 ) ) ;
#115 = AXIS2_PLACEMENT_3D ( 'NONE', #132, #107, #216 ) ;
#116 = ADVANCED_FACE ( 'NONE', ( #109, #10 ), #24, .F. ) ;
#117 = DIRECTION ( 'NONE',  ( -3.491481338843133355E-15, 1.224646799147353207E-16, -1.000000000000000000 ) ) ;
#118 = DIRECTION ( 'NONE',  ( -3.668437989309012894E-31, -1.000000000000000000, -1.032573497605240129E-16 ) ) ;
#119 = CARTESIAN_POINT ( 'NONE',  ( 2.304377683636468267E-13, 1.724723750061124754E-32, 66.00000000000000000 ) ) ;
#120 = CARTESIAN_POINT ( 'NONE',  ( 5.935518276033326704E-14, -7.356197151137462899E-15, 17.00000000000000000 ) ) ;
#121 = CLOSED_SHELL ( 'NONE', ( #184, #256, #31 ) ) ;
#122 = APPROVAL_ROLE ( '' ) ;
#123 = CC_DESIGN_APPROVAL ( #49, ( #48 ) ) ;
#124 = PERSON_AND_ORGANIZATION ( #80, #113 ) ;
#125 = ORIENTED_EDGE ( 'NONE', *, *, #207, .F. ) ;
#126 = CC_DESIGN_APPROVAL ( #220, ( #200 ) ) ;
#127 = AXIS2_PLACEMENT_3D ( 'NONE', #253, #219, #7 ) ;
#128 = PRODUCT_DEFINITION_SHAPE ( 'NONE', 'NONE',  #200 ) ;
#129 = EDGE_LOOP ( 'NONE', ( #87 ) ) ;
#130 = DIRECTION ( 'NONE',  ( -3.491481338843133355E-15, 1.224646799147353207E-16, -1.000000000000000000 ) ) ;
#131 = PLANE ( 'NONE',  #59 ) ;
#132 = CARTESIAN_POINT ( 'NONE',  ( 8.379555213223520053E-14, -1.038521950748818292E-14, 24.00000000000000000 ) ) ;
#133 = CARTESIAN_POINT ( 'NONE',  ( 2.304377683636468267E-13, 2.299999999999992717, 66.00000000000000000 ) ) ;
#134 = EDGE_CURVE ( 'NONE', #258, #258, #104, .T. ) ;
#135 = DIRECTION ( 'NONE',  ( -5.135813185032639159E-31, -1.000000000000000000, -1.445602896647342121E-16 ) ) ;
#136 = DIRECTION ( 'NONE',  ( 1.510825004591027855E-30, 1.000000000000000000, 4.327174794786743868E-16 ) ) ;
#137 = FACE_OUTER_BOUND ( 'NONE', #47, .T. ) ;
#138 = VERTEX_POINT ( 'NONE', #72 ) ;
#139 = AXIS2_PLACEMENT_3D ( 'NONE', #120, #93, #51 ) ;
#140 = CC_DESIGN_PERSON_AND_ORGANIZATION_ASSIGNMENT ( #147, #100, ( #173 ) ) ;
#141 = PERSON_AND_ORGANIZATION ( #80, #113 ) ;
#142 = AXIS2_PLACEMENT_3D ( 'NONE', #234, #42, #28 ) ;
#143 = PERSON_AND_ORGANIZATION_ROLE ( 'creator' ) ;
#144 = ADVANCED_BREP_SHAPE_REPRESENTATION ( '43321', ( #96, #192, #90 ), #163 ) ;
#145 = APPROVAL_PERSON_ORGANIZATION ( #141, #49, #185 ) ;
#146 = DATE_AND_TIME ( #81, #194 ) ;
#147 = PERSON_AND_ORGANIZATION ( #80, #113 ) ;
#148 = COORDINATED_UNIVERSAL_TIME_OFFSET ( 1, 0, .AHEAD. ) ;
#149 = EDGE_CURVE ( 'NONE', #225, #225, #53, .T. ) ;
#150 = LOCAL_TIME ( 13, 36, 0.0000000000000000000, #148 ) ;
#151 = CARTESIAN_POINT ( 'NONE',  ( 5.935518276033326704E-14, 2.249639673992780117E-32, 17.00000000000000000 ) ) ;
#152 = FACE_BOUND ( 'NONE', #102, .T. ) ;
#153 = CARTESIAN_POINT ( 'NONE',  ( 8.554129280165677352E-14, -1.060157824722752006E-14, 24.50000000000000000 ) ) ;
#154 = CC_DESIGN_APPROVAL ( #171, ( #12 ) ) ;
#155 = DIRECTION ( 'NONE',  ( 0.0000000000000000000, 1.000000000000000000, 0.0000000000000000000 ) ) ;
#156 = ORIENTED_EDGE ( 'NONE', *, *, #149, .F. ) ;
#157 = ADVANCED_FACE ( 'NONE', ( #44 ), #131, .F. ) ;
#158 = CARTESIAN_POINT ( 'NONE',  ( 5.935518276033326704E-14, -7.356197151137462899E-15, 17.00000000000000000 ) ) ;
#159 = DIRECTION ( 'NONE',  ( 1.510825004591027855E-30, 1.000000000000000000, 4.327174794786743868E-16 ) ) ;
#160 = CARTESIAN_POINT ( 'NONE',  ( 5.935518276033326704E-14, -2.100000000000012079, 17.00000000000000000 ) ) ;
#161 = CYLINDRICAL_SURFACE ( 'NONE', #262, 2.100000000000004530 ) ;
#162 = CARTESIAN_POINT ( 'NONE',  ( 0.0000000000000000000, 0.0000000000000000000, 0.0000000000000000000 ) ) ;
#163 =( GEOMETRIC_REPRESENTATION_CONTEXT ( 3 ) GLOBAL_UNCERTAINTY_ASSIGNED_CONTEXT ( ( #242 ) ) GLOBAL_UNIT_ASSIGNED_CONTEXT ( ( #204, #205, #17 ) ) REPRESENTATION_CONTEXT ( 'NONE', 'WORKASPACE' ) );
#164 = SHAPE_DEFINITION_REPRESENTATION ( #128, #144 ) ;
#165 = EDGE_CURVE ( 'NONE', #76, #76, #16, .T. ) ;
#166 = MECHANICAL_CONTEXT ( 'NONE', #228, 'mechanical' ) ;
#167 = PERSON_AND_ORGANIZATION ( #80, #113 ) ;
#168 = ORIENTED_EDGE ( 'NONE', *, *, #55, .T. ) ;
#169 = CONICAL_SURFACE ( 'NONE', #222, 2.999999999999993783, 1.221730476396026388 ) ;
#170 = DIRECTION ( 'NONE',  ( 1.000000000000000000, 0.0000000000000000000, 0.0000000000000000000 ) ) ;
#171 = APPROVAL ( #231, 'UNSPECIFIED' ) ;
#172 = EDGE_LOOP ( 'NONE', ( #217 ) ) ;
#173 = PRODUCT ( '43321', '43321', '', ( #166 ) ) ;
#174 = ORIENTED_EDGE ( 'NONE', *, *, #207, .T. ) ;
#175 = EDGE_LOOP ( 'NONE', ( #6 ) ) ;
#176 = EDGE_LOOP ( 'NONE', ( #63 ) ) ;
#177 = ORIENTED_EDGE ( 'NONE', *, *, #134, .F. ) ;
#178 = APPROVAL_PERSON_ORGANIZATION ( #167, #220, #227 ) ;
#179 = ADVANCED_FACE ( 'NONE', ( #223 ), #94, .F. ) ;
#180 = CARTESIAN_POINT ( 'NONE',  ( 2.668670089753140591E-15, -9.360434629959502085E-17, 0.7643374919590367744 ) ) ;
#181 = DIRECTION ( 'NONE',  ( 0.0000000000000000000, -1.000000000000000000, 0.0000000000000000000 ) ) ;
#182 = DIRECTION ( 'NONE',  ( -3.491481338843133355E-15, 1.224646799147353207E-16, -1.000000000000000000 ) ) ;
#183 = DIRECTION ( 'NONE',  ( -3.491481338843133355E-15, 1.224646799147353207E-16, -1.000000000000000000 ) ) ;
#184 = ADVANCED_FACE ( 'NONE', ( #245 ), #169, .T. ) ;
#185 = APPROVAL_ROLE ( '' ) ;
#186 = APPROVAL_PERSON_ORGANIZATION ( #124, #171, #122 ) ;
#187 = DATE_TIME_ROLE ( 'creation_date' ) ;
#188 = APPLICATION_PROTOCOL_DEFINITION ( 'international standard', 'config_control_design', 1994, #228 ) ;
#189 = EDGE_LOOP ( 'NONE', ( #174 ) ) ;
#190 = PERSON_AND_ORGANIZATION_ROLE ( 'classification_officer' ) ;
#191 = ORIENTED_EDGE ( 'NONE', *, *, #106, .T. ) ;
#192 = MANIFOLD_SOLID_BREP ( 'Corps-Déplacer/Copier1[2]', #121 ) ;
#193 = ORIENTED_EDGE ( 'NONE', *, *, #37, .F. ) ;
#194 = LOCAL_TIME ( 13, 36, 0.0000000000000000000, #263 ) ;
#195 = FACE_OUTER_BOUND ( 'NONE', #86, .T. ) ;
#196 = DIRECTION ( 'NONE',  ( -4.275831445896958607E-31, -1.000000000000000000, -1.224646799147353207E-16 ) ) ;
#197 = CARTESIAN_POINT ( 'NONE',  ( 5.935518276033326704E-14, 2.249639673992780117E-32, 17.00000000000000000 ) ) ;
#198 = PLANE ( 'NONE',  #71 ) ;
#199 = AXIS2_PLACEMENT_3D ( 'NONE', #14, #182, #226 ) ;
#200 = PRODUCT_DEFINITION ( 'UNKNOWN', '', #12, #19 ) ;
#201 = CARTESIAN_POINT ( 'NONE',  ( 0.0000000000000000000, 0.0000000000000000000, 0.0000000000000000000 ) ) ;
#202 = AXIS2_PLACEMENT_3D ( 'NONE', #237, #29, #91 ) ;
#203 = FACE_OUTER_BOUND ( 'NONE', #23, .T. ) ;
#204 =( LENGTH_UNIT ( ) NAMED_UNIT ( * ) SI_UNIT ( .MILLI., .METRE. ) );
#205 =( NAMED_UNIT ( * ) PLANE_ANGLE_UNIT ( ) SI_UNIT ( $, .RADIAN. ) );
#206 = CARTESIAN_POINT ( 'NONE',  ( 2.279937314264566018E-13, 2.999999999999992895, 65.29999999999999716 ) ) ;
#207 = EDGE_CURVE ( 'NONE', #34, #34, #212, .T. ) ;
#208 = APPROVAL_STATUS ( 'not_yet_approved' ) ;
#209 = EDGE_LOOP ( 'NONE', ( #125 ) ) ;
#210 = SECURITY_CLASSIFICATION_LEVEL ( 'unclassified' ) ;
#211 = EDGE_LOOP ( 'NONE', ( #108 ) ) ;
#212 = CIRCLE ( 'NONE', #98, 2.100000000000004530 ) ;
#213 = FACE_BOUND ( 'NONE', #129, .T. ) ;
#214 = ADVANCED_FACE ( 'NONE', ( #137, #203 ), #77, .T. ) ;
#215 = DIRECTION ( 'NONE',  ( 0.0000000000000000000, 1.000000000000000000, 0.0000000000000000000 ) ) ;
#216 = DIRECTION ( 'NONE',  ( 0.0000000000000000000, 1.000000000000000000, 0.0000000000000000000 ) ) ;
#217 = ORIENTED_EDGE ( 'NONE', *, *, #55, .F. ) ;
#218 = AXIS2_PLACEMENT_3D ( 'NONE', #235, #8, #11 ) ;
#219 = DIRECTION ( 'NONE',  ( 3.491481338843133355E-15, -4.327174794786742882E-16, 1.000000000000000000 ) ) ;
#220 = APPROVAL ( #97, 'UNSPECIFIED' ) ;
#221 = VERTEX_POINT ( 'NONE', #206 ) ;
#222 = AXIS2_PLACEMENT_3D ( 'NONE', #33, #114, #135 ) ;
#223 = FACE_OUTER_BOUND ( 'NONE', #105, .T. ) ;
#224 = CIRCLE ( 'NONE', #115, 2.100000000000008527 ) ;
#225 = VERTEX_POINT ( 'NONE', #241 ) ;
#226 = DIRECTION ( 'NONE',  ( 4.275831445896958607E-31, 1.000000000000000000, 1.224646799147353454E-16 ) ) ;
#227 = APPROVAL_ROLE ( '' ) ;
#228 = APPLICATION_CONTEXT ( 'configuration controlled 3d designs of mechanical parts and assemblies' ) ;
#229 = PERSON_AND_ORGANIZATION_ROLE ( 'design_supplier' ) ;
#230 = COORDINATED_UNIVERSAL_TIME_OFFSET ( 1, 0, .AHEAD. ) ;
#231 = APPROVAL_STATUS ( 'not_yet_approved' ) ;
#232 = CIRCLE ( 'NONE', #139, 2.100000000000004530 ) ;
#233 = EDGE_CURVE ( 'NONE', #138, #138, #232, .T. ) ;
#234 = CARTESIAN_POINT ( 'NONE',  ( 2.304377683636468267E-13, -8.082668874372532400E-15, 66.00000000000000000 ) ) ;
#235 = CARTESIAN_POINT ( 'NONE',  ( 9.319748403894340759E-14, -1.155044993035761252E-14, 26.69282032302754359 ) ) ;
#236 = DIRECTION ( 'NONE',  ( 0.0000000000000000000, 1.000000000000000000, 0.0000000000000000000 ) ) ;
#237 = CARTESIAN_POINT ( 'NONE',  ( 8.379555213223520053E-14, -1.040834085586084257E-14, 24.00000000000000000 ) ) ;
#238 = CIRCLE ( 'NONE', #142, 2.300000000000000711 ) ;
#239 = DIRECTION ( 'NONE',  ( 3.491481338843133355E-15, -1.224646799147353207E-16, 1.000000000000000000 ) ) ;
#240 = LOCAL_TIME ( 13, 36, 0.0000000000000000000, #57 ) ;
#241 = CARTESIAN_POINT ( 'NONE',  ( 8.554129280165677352E-14, 2.233974596215561270, 24.50000000000000000 ) ) ;
#242 = UNCERTAINTY_MEASURE_WITH_UNIT (LENGTH_MEASURE( 1.000000000000000082E-05 ), #204, 'distance_accuracy_value', 'NONE');
#243 = FACE_OUTER_BOUND ( 'NONE', #252, .T. ) ;
#244 = LOCAL_TIME ( 13, 36, 0.0000000000000000000, #5 ) ;
#245 = FACE_OUTER_BOUND ( 'NONE', #9, .T. ) ;
#246 = PRODUCT_RELATED_PRODUCT_CATEGORY ( 'detail', '', ( #173 ) ) ;
#247 = APPLICATION_PROTOCOL_DEFINITION ( 'international standard', 'config_control_design', 1994, #69 ) ;
#248 = AXIS2_PLACEMENT_3D ( 'NONE', #180, #183, #118 ) ;
#249 = DATE_AND_TIME ( #58, #244 ) ;
#250 = ADVANCED_FACE ( 'NONE', ( #243, #257 ), #74, .T. ) ;
#251 = AXIS2_PLACEMENT_3D ( 'NONE', #201, #259, #136 ) ;
#252 = EDGE_LOOP ( 'NONE', ( #191 ) ) ;
#253 = CARTESIAN_POINT ( 'NONE',  ( 9.017377250266589064E-14, -1.117570560046750216E-14, 25.82679491924308834 ) ) ;
#254 = DIRECTION ( 'NONE',  ( -4.275831445896958607E-31, -1.000000000000000000, -1.224646799147353207E-16 ) ) ;
#255 = DIRECTION ( 'NONE',  ( -3.491481338843133355E-15, 4.327174794786742882E-16, -1.000000000000000000 ) ) ;
#256 = ADVANCED_FACE ( 'NONE', ( #13, #92 ), #161, .T. ) ;
#257 = FACE_OUTER_BOUND ( 'NONE', #209, .T. ) ;
#258 = VERTEX_POINT ( 'NONE', #15 ) ;
#259 = DIRECTION ( 'NONE',  ( -3.491481338843133355E-15, 4.327174794786742882E-16, -1.000000000000000000 ) ) ;
#260 = CC_DESIGN_DATE_AND_TIME_ASSIGNMENT ( #3, #187, ( #200 ) ) ;
#261 = DIRECTION ( 'NONE',  ( 4.275831445896958607E-31, 1.000000000000000000, 1.224646799147353207E-16 ) ) ;
#262 = AXIS2_PLACEMENT_3D ( 'NONE', #162, #255, #159 ) ;
#263 = COORDINATED_UNIVERSAL_TIME_OFFSET ( 1, 0, .AHEAD. ) ;
ENDSEC;
END-ISO-10303-21;
