ISO-10303-21;
HEADER;
FILE_DESCRIPTION (( 'STEP AP203' ),
    '1' );
FILE_NAME ('43320.step',
    '2021-10-13T11:35:59',
    ( '' ),
    ( '' ),
    'SwSTEP 2.0',
    'SolidWorks 2019',
    '' );
FILE_SCHEMA (( 'CONFIG_CONTROL_DESIGN' ));
ENDSEC;

DATA;
#1 = EDGE_CURVE ( 'NONE', #176, #176, #236, .T. ) ;
#2 = ORIENTED_EDGE ( 'NONE', *, *, #1, .F. ) ;
#3 = ORIENTED_EDGE ( 'NONE', *, *, #11, .F. ) ;
#4 = DIRECTION ( 'NONE',  ( -3.491481338843133355E-15, 4.327174794786742882E-16, -1.000000000000000000 ) ) ;
#5 = PRODUCT ( '43320', '43320', '', ( #95 ) ) ;
#6 = DIRECTION ( 'NONE',  ( -3.491481338843133355E-15, 4.327174794786742882E-16, -1.000000000000000000 ) ) ;
#7 = LOCAL_TIME ( 13, 35, 59.00000000000000000, #220 ) ;
#8 = CARTESIAN_POINT ( 'NONE',  ( 3.812385842504470444E-15, -1.337204947137066162E-16, 1.091910702798619459 ) ) ;
#9 = CARTESIAN_POINT ( 'NONE',  ( 2.304377683636468267E-13, -8.082668874372532400E-15, 66.00000000000000000 ) ) ;
#10 = DIRECTION ( 'NONE',  ( 3.491481338843133355E-15, -1.224646799147353207E-16, 1.000000000000000000 ) ) ;
#11 = EDGE_CURVE ( 'NONE', #152, #152, #90, .T. ) ;
#12 = PERSON_AND_ORGANIZATION ( #251, #21 ) ;
#13 = CIRCLE ( 'NONE', #57, 2.050000000000007372 ) ;
#14 = CARTESIAN_POINT ( 'NONE',  ( 9.047614365629364107E-14, -3.000000000000009770, 25.91339745962153174 ) ) ;
#15 = EDGE_CURVE ( 'NONE', #234, #234, #43, .T. ) ;
#16 = CARTESIAN_POINT ( 'NONE',  ( 2.304377683636468267E-13, -8.082668874372532400E-15, 66.00000000000000000 ) ) ;
#17 = PERSON_AND_ORGANIZATION ( #251, #21 ) ;
#18 = EDGE_LOOP ( 'NONE', ( #124 ) ) ;
#19 = ORIENTED_EDGE ( 'NONE', *, *, #1, .T. ) ;
#20 = PERSON_AND_ORGANIZATION ( #251, #21 ) ;
#21 = ORGANIZATION ( 'UNSPECIFIED', 'UNSPECIFIED', '' ) ;
#22 = FACE_OUTER_BOUND ( 'NONE', #263, .T. ) ;
#23 = DIRECTION ( 'NONE',  ( -3.491481338843133355E-15, 1.224646799147353207E-16, -1.000000000000000000 ) ) ;
#24 = ORIENTED_EDGE ( 'NONE', *, *, #101, .F. ) ;
#25 = AXIS2_PLACEMENT_3D ( 'NONE', #228, #172, #128 ) ;
#26 = APPROVAL_PERSON_ORGANIZATION ( #12, #167, #185 ) ;
#27 = CARTESIAN_POINT ( 'NONE',  ( 2.279937314264566018E-13, -7.996943598432214956E-15, 65.29999999999999716 ) ) ;
#28 = CARTESIAN_POINT ( 'NONE',  ( 9.047614365629364107E-14, -1.121318003345651131E-14, 25.91339745962153174 ) ) ;
#29 = DIRECTION ( 'NONE',  ( 4.275831445896958607E-31, 1.000000000000000000, 1.224646799147353207E-16 ) ) ;
#30 = DIRECTION ( 'NONE',  ( -3.491481338843133355E-15, 1.224646799147353207E-16, -1.000000000000000000 ) ) ;
#31 = UNCERTAINTY_MEASURE_WITH_UNIT (LENGTH_MEASURE( 1.000000000000000082E-05 ), #199, 'distance_accuracy_value', 'NONE');
#32 = CARTESIAN_POINT ( 'NONE',  ( 2.605130325711397656E-15, -2.050000000000004263, 0.7461389802457260023 ) ) ;
#33 = VERTEX_POINT ( 'NONE', #215 ) ;
#34 = CC_DESIGN_DATE_AND_TIME_ASSIGNMENT ( #164, #187, ( #179 ) ) ;
#35 = APPROVAL_DATE_TIME ( #76, #167 ) ;
#36 = CALENDAR_DATE ( 2021, 13, 10 ) ;
#37 = DESIGN_CONTEXT ( 'detailed design', #110, 'design' ) ;
#38 = CIRCLE ( 'NONE', #226, 2.050000000000004263 ) ;
#39 = PRODUCT_DEFINITION_SHAPE ( 'NONE', 'NONE',  #259 ) ;
#40 = ADVANCED_BREP_SHAPE_REPRESENTATION ( '43320', ( #158, #159, #44 ), #121 ) ;
#41 = ADVANCED_FACE ( 'NONE', ( #146, #104 ), #232, .T. ) ;
#42 = CARTESIAN_POINT ( 'NONE',  ( 2.605130325711398444E-15, -9.137567138769988223E-17, 0.7461389802457262244 ) ) ;
#43 = CIRCLE ( 'NONE', #137, 2.999999999999998224 ) ;
#44 = AXIS2_PLACEMENT_3D ( 'NONE', #94, #74, #153 ) ;
#45 = PLANE ( 'NONE',  #190 ) ;
#46 = CARTESIAN_POINT ( 'NONE',  ( 8.554129280165677352E-14, -1.060157824722752006E-14, 24.50000000000000000 ) ) ;
#47 = FACE_OUTER_BOUND ( 'NONE', #18, .T. ) ;
#48 = DIRECTION ( 'NONE',  ( 3.491481338843133355E-15, -1.224646799147353207E-16, 1.000000000000000000 ) ) ;
#49 = PERSON_AND_ORGANIZATION_ROLE ( 'design_owner' ) ;
#50 =( NAMED_UNIT ( * ) PLANE_ANGLE_UNIT ( ) SI_UNIT ( $, .RADIAN. ) );
#51 = CIRCLE ( 'NONE', #182, 2.050000000000004263 ) ;
#52 = DIRECTION ( 'NONE',  ( -3.491481338843133355E-15, 4.327174794786742882E-16, -1.000000000000000000 ) ) ;
#53 = FACE_BOUND ( 'NONE', #241, .T. ) ;
#54 = CARTESIAN_POINT ( 'NONE',  ( 2.279937314264566018E-13, 2.999999999999992895, 65.29999999999999716 ) ) ;
#55 = ADVANCED_FACE ( 'NONE', ( #252, #195 ), #131, .T. ) ;
#56 = AXIS2_PLACEMENT_3D ( 'NONE', #46, #6, #87 ) ;
#57 = AXIS2_PLACEMENT_3D ( 'NONE', #71, #52, #111 ) ;
#58 = COORDINATED_UNIVERSAL_TIME_OFFSET ( 1, 0, .AHEAD. ) ;
#59 = APPROVAL_DATE_TIME ( #75, #117 ) ;
#60 = ADVANCED_FACE ( 'NONE', ( #85 ), #45, .T. ) ;
#61 = ORIENTED_EDGE ( 'NONE', *, *, #11, .T. ) ;
#62 = APPROVAL_ROLE ( '' ) ;
#63 = AXIS2_PLACEMENT_3D ( 'NONE', #237, #254, #29 ) ;
#64 = EDGE_LOOP ( 'NONE', ( #3 ) ) ;
#65 = EDGE_LOOP ( 'NONE', ( #24 ) ) ;
#66 = DIRECTION ( 'NONE',  ( -3.491481338843133355E-15, 1.224646799147353207E-16, -1.000000000000000000 ) ) ;
#67 = ADVANCED_FACE ( 'NONE', ( #194 ), #243, .T. ) ;
#68 = DIRECTION ( 'NONE',  ( -3.757912086609232860E-31, -1.000000000000000000, -1.057758217059026512E-16 ) ) ;
#69 = CONICAL_SURFACE ( 'NONE', #219, 2.300000000000000711, 0.7853981633974437271 ) ;
#70 = DIRECTION ( 'NONE',  ( 4.275831445896958607E-31, 1.000000000000000000, 1.224646799147353454E-16 ) ) ;
#71 = CARTESIAN_POINT ( 'NONE',  ( 8.379555213223520053E-14, -1.038521950748818292E-14, 24.00000000000000000 ) ) ;
#72 = APPLICATION_CONTEXT ( 'configuration controlled 3d designs of mechanical parts and assemblies' ) ;
#73 = APPROVAL_PERSON_ORGANIZATION ( #207, #161, #204 ) ;
#74 = DIRECTION ( 'NONE',  ( 0.0000000000000000000, 0.0000000000000000000, 1.000000000000000000 ) ) ;
#75 = DATE_AND_TIME ( #143, #217 ) ;
#76 = DATE_AND_TIME ( #36, #7 ) ;
#77 = CIRCLE ( 'NONE', #56, 2.183974596215570774 ) ;
#78 = CALENDAR_DATE ( 2021, 13, 10 ) ;
#79 = PERSON_AND_ORGANIZATION_ROLE ( 'creator' ) ;
#80 = COORDINATED_UNIVERSAL_TIME_OFFSET ( 1, 0, .AHEAD. ) ;
#81 = AXIS2_PLACEMENT_3D ( 'NONE', #250, #4, #208 ) ;
#82 = EDGE_LOOP ( 'NONE', ( #188 ) ) ;
#83 = CC_DESIGN_PERSON_AND_ORGANIZATION_ASSIGNMENT ( #20, #169, ( #238 ) ) ;
#84 = DIRECTION ( 'NONE',  ( 3.491481338843133355E-15, -1.224646799147353207E-16, 1.000000000000000000 ) ) ;
#85 = FACE_OUTER_BOUND ( 'NONE', #99, .T. ) ;
#86 = AXIS2_PLACEMENT_3D ( 'NONE', #209, #231, #192 ) ;
#87 = DIRECTION ( 'NONE',  ( 0.0000000000000000000, 1.000000000000000000, 0.0000000000000000000 ) ) ;
#88 = CARTESIAN_POINT ( 'NONE',  ( 5.935518276033326704E-14, -7.356197151137462899E-15, 17.00000000000000000 ) ) ;
#89 = FACE_BOUND ( 'NONE', #65, .T. ) ;
#90 = CIRCLE ( 'NONE', #114, 2.300000000000000711 ) ;
#91 = CC_DESIGN_SECURITY_CLASSIFICATION ( #179, ( #238 ) ) ;
#92 = DIRECTION ( 'NONE',  ( -3.491481338843133355E-15, 4.327174794786742882E-16, -1.000000000000000000 ) ) ;
#93 = CARTESIAN_POINT ( 'NONE',  ( 5.935518276033326704E-14, -2.050000000000011369, 17.00000000000000000 ) ) ;
#94 = CARTESIAN_POINT ( 'NONE',  ( 0.0000000000000000000, 0.0000000000000000000, 0.0000000000000000000 ) ) ;
#95 = MECHANICAL_CONTEXT ( 'NONE', #72, 'mechanical' ) ;
#96 = APPROVAL_STATUS ( 'not_yet_approved' ) ;
#97 = PERSON_AND_ORGANIZATION_ROLE ( 'creator' ) ;
#98 = ORIENTED_EDGE ( 'NONE', *, *, #202, .F. ) ;
#99 = EDGE_LOOP ( 'NONE', ( #2 ) ) ;
#100 = PERSON_AND_ORGANIZATION_ROLE ( 'classification_officer' ) ;
#101 = EDGE_CURVE ( 'NONE', #33, #33, #77, .T. ) ;
#102 = CYLINDRICAL_SURFACE ( 'NONE', #105, 2.050000000000004263 ) ;
#103 = CARTESIAN_POINT ( 'NONE',  ( 5.935518276033326704E-14, 2.249639673992780117E-32, 17.00000000000000000 ) ) ;
#104 = FACE_OUTER_BOUND ( 'NONE', #175, .T. ) ;
#105 = AXIS2_PLACEMENT_3D ( 'NONE', #171, #211, #246 ) ;
#106 = LOCAL_TIME ( 13, 35, 59.00000000000000000, #58 ) ;
#107 = DIRECTION ( 'NONE',  ( -3.491481338843133355E-15, 1.224646799147353207E-16, -1.000000000000000000 ) ) ;
#108 = EDGE_LOOP ( 'NONE', ( #19 ) ) ;
#109 = CLOSED_SHELL ( 'NONE', ( #55, #239, #256, #225, #221, #245, #134 ) ) ;
#110 = APPLICATION_CONTEXT ( 'configuration controlled 3d designs of mechanical parts and assemblies' ) ;
#111 = DIRECTION ( 'NONE',  ( 0.0000000000000000000, 1.000000000000000000, 0.0000000000000000000 ) ) ;
#112 = EDGE_CURVE ( 'NONE', #255, #255, #51, .T. ) ;
#113 = DIRECTION ( 'NONE',  ( 0.0000000000000000000, 1.000000000000000000, 0.0000000000000000000 ) ) ;
#114 = AXIS2_PLACEMENT_3D ( 'NONE', #9, #130, #248 ) ;
#115 = APPLICATION_PROTOCOL_DEFINITION ( 'international standard', 'config_control_design', 1994, #72 ) ;
#116 = DATE_AND_TIME ( #119, #106 ) ;
#117 = APPROVAL ( #166, 'UNSPECIFIED' ) ;
#118 = EDGE_LOOP ( 'NONE', ( #120 ) ) ;
#119 = CALENDAR_DATE ( 2021, 13, 10 ) ;
#120 = ORIENTED_EDGE ( 'NONE', *, *, #112, .T. ) ;
#121 =( GEOMETRIC_REPRESENTATION_CONTEXT ( 3 ) GLOBAL_UNCERTAINTY_ASSIGNED_CONTEXT ( ( #31 ) ) GLOBAL_UNIT_ASSIGNED_CONTEXT ( ( #199, #50, #156 ) ) REPRESENTATION_CONTEXT ( 'NONE', 'WORKASPACE' ) );
#122 = EDGE_LOOP ( 'NONE', ( #206 ) ) ;
#123 = CALENDAR_DATE ( 2021, 13, 10 ) ;
#124 = ORIENTED_EDGE ( 'NONE', *, *, #253, .T. ) ;
#125 = CC_DESIGN_PERSON_AND_ORGANIZATION_ASSIGNMENT ( #151, #49, ( #5 ) ) ;
#126 = COORDINATED_UNIVERSAL_TIME_OFFSET ( 1, 0, .AHEAD. ) ;
#127 = PLANE ( 'NONE',  #178 ) ;
#128 = DIRECTION ( 'NONE',  ( 0.0000000000000000000, -1.000000000000000000, 0.0000000000000000000 ) ) ;
#129 = CC_DESIGN_DATE_AND_TIME_ASSIGNMENT ( #116, #203, ( #259 ) ) ;
#130 = DIRECTION ( 'NONE',  ( -3.491481338843133355E-15, 1.224646799147353207E-16, -1.000000000000000000 ) ) ;
#131 = CYLINDRICAL_SURFACE ( 'NONE', #160, 2.999999999999998224 ) ;
#132 = CC_DESIGN_APPROVAL ( #161, ( #238 ) ) ;
#133 = DIRECTION ( 'NONE',  ( -5.135813185032639159E-31, -1.000000000000000000, -1.445602896647342121E-16 ) ) ;
#134 = ADVANCED_FACE ( 'NONE', ( #191 ), #127, .F. ) ;
#135 = CARTESIAN_POINT ( 'NONE',  ( 8.379555213223520053E-14, -1.040834085586084257E-14, 24.00000000000000000 ) ) ;
#136 = DIRECTION ( 'NONE',  ( 0.0000000000000000000, 1.000000000000000000, 0.0000000000000000000 ) ) ;
#137 = AXIS2_PLACEMENT_3D ( 'NONE', #28, #210, #145 ) ;
#138 = VERTEX_POINT ( 'NONE', #54 ) ;
#139 = CARTESIAN_POINT ( 'NONE',  ( 5.935518276033326704E-14, -2.050000000000011369, 17.00000000000000000 ) ) ;
#140 = CARTESIAN_POINT ( 'NONE',  ( 8.379555213223520053E-14, 2.049999999999997158, 24.00000000000000000 ) ) ;
#141 = APPROVAL_STATUS ( 'not_yet_approved' ) ;
#142 = EDGE_LOOP ( 'NONE', ( #223 ) ) ;
#143 = CALENDAR_DATE ( 2021, 13, 10 ) ;
#144 = SECURITY_CLASSIFICATION_LEVEL ( 'unclassified' ) ;
#145 = DIRECTION ( 'NONE',  ( 0.0000000000000000000, -1.000000000000000000, 0.0000000000000000000 ) ) ;
#146 = FACE_OUTER_BOUND ( 'NONE', #108, .T. ) ;
#147 = DIRECTION ( 'NONE',  ( 0.0000000000000000000, -1.000000000000000000, 0.0000000000000000000 ) ) ;
#148 = CARTESIAN_POINT ( 'NONE',  ( 5.935518276033326704E-14, 2.249639673992780117E-32, 17.00000000000000000 ) ) ;
#149 = TOROIDAL_SURFACE ( 'NONE', #197, 3.050000000000008260, 0.9999999999999991118 ) ;
#150 = LOCAL_TIME ( 13, 35, 59.00000000000000000, #126 ) ;
#151 = PERSON_AND_ORGANIZATION ( #251, #21 ) ;
#152 = VERTEX_POINT ( 'NONE', #198 ) ;
#153 = DIRECTION ( 'NONE',  ( 1.000000000000000000, 0.0000000000000000000, 0.0000000000000000000 ) ) ;
#154 = AXIS2_PLACEMENT_3D ( 'NONE', #27, #107, #113 ) ;
#155 = CC_DESIGN_APPROVAL ( #167, ( #259 ) ) ;
#156 =( NAMED_UNIT ( * ) SI_UNIT ( $, .STERADIAN. ) SOLID_ANGLE_UNIT ( ) );
#157 = FACE_OUTER_BOUND ( 'NONE', #142, .T. ) ;
#158 = MANIFOLD_SOLID_BREP ( 'Corps-Déplacer/Copier1[1]', #109 ) ;
#159 = MANIFOLD_SOLID_BREP ( 'Corps-Déplacer/Copier1[2]', #216 ) ;
#160 = AXIS2_PLACEMENT_3D ( 'NONE', #229, #23, #70 ) ;
#161 = APPROVAL ( #96, 'UNSPECIFIED' ) ;
#162 = CC_DESIGN_APPROVAL ( #117, ( #179 ) ) ;
#163 = EDGE_LOOP ( 'NONE', ( #205 ) ) ;
#164 = DATE_AND_TIME ( #78, #227 ) ;
#165 = EDGE_LOOP ( 'NONE', ( #186 ) ) ;
#166 = APPROVAL_STATUS ( 'not_yet_approved' ) ;
#167 = APPROVAL ( #141, 'UNSPECIFIED' ) ;
#168 = EDGE_LOOP ( 'NONE', ( #224 ) ) ;
#169 = PERSON_AND_ORGANIZATION_ROLE ( 'design_supplier' ) ;
#170 = CC_DESIGN_PERSON_AND_ORGANIZATION_ASSIGNMENT ( #244, #100, ( #179 ) ) ;
#171 = CARTESIAN_POINT ( 'NONE',  ( 0.0000000000000000000, 0.0000000000000000000, 0.0000000000000000000 ) ) ;
#172 = DIRECTION ( 'NONE',  ( -3.491481338843133355E-15, 1.224646799147353207E-16, -1.000000000000000000 ) ) ;
#173 = DIRECTION ( 'NONE',  ( -3.491481338843133355E-15, 1.224646799147353207E-16, -1.000000000000000000 ) ) ;
#174 = EDGE_LOOP ( 'NONE', ( #260 ) ) ;
#175 = EDGE_LOOP ( 'NONE', ( #184 ) ) ;
#176 = VERTEX_POINT ( 'NONE', #139 ) ;
#177 = CC_DESIGN_PERSON_AND_ORGANIZATION_ASSIGNMENT ( #242, #79, ( #259 ) ) ;
#178 = AXIS2_PLACEMENT_3D ( 'NONE', #148, #84, #249 ) ;
#179 = SECURITY_CLASSIFICATION ( '', '', #144 ) ;
#180 = FACE_OUTER_BOUND ( 'NONE', #64, .T. ) ;
#181 = CC_DESIGN_PERSON_AND_ORGANIZATION_ASSIGNMENT ( #17, #97, ( #238 ) ) ;
#182 = AXIS2_PLACEMENT_3D ( 'NONE', #42, #173, #68 ) ;
#183 = DATE_AND_TIME ( #123, #150 ) ;
#184 = ORIENTED_EDGE ( 'NONE', *, *, #112, .F. ) ;
#185 = APPROVAL_ROLE ( '' ) ;
#186 = ORIENTED_EDGE ( 'NONE', *, *, #230, .F. ) ;
#187 = DATE_TIME_ROLE ( 'classification_date' ) ;
#188 = ORIENTED_EDGE ( 'NONE', *, *, #230, .T. ) ;
#189 = PERSON_AND_ORGANIZATION ( #251, #21 ) ;
#190 = AXIS2_PLACEMENT_3D ( 'NONE', #103, #48, #193 ) ;
#191 = FACE_OUTER_BOUND ( 'NONE', #168, .T. ) ;
#192 = DIRECTION ( 'NONE',  ( 0.0000000000000000000, -1.000000000000000000, 0.0000000000000000000 ) ) ;
#193 = DIRECTION ( 'NONE',  ( -4.275831445896958607E-31, -1.000000000000000000, -1.224646799147353207E-16 ) ) ;
#194 = FACE_OUTER_BOUND ( 'NONE', #118, .T. ) ;
#195 = FACE_OUTER_BOUND ( 'NONE', #82, .T. ) ;
#196 = AXIS2_PLACEMENT_3D ( 'NONE', #8, #10, #133 ) ;
#197 = AXIS2_PLACEMENT_3D ( 'NONE', #135, #92, #218 ) ;
#198 = CARTESIAN_POINT ( 'NONE',  ( 2.304377683636468267E-13, 2.299999999999992717, 66.00000000000000000 ) ) ;
#199 =( LENGTH_UNIT ( ) NAMED_UNIT ( * ) SI_UNIT ( .MILLI., .METRE. ) );
#200 = PLANE ( 'NONE',  #63 ) ;
#201 = FACE_OUTER_BOUND ( 'NONE', #163, .T. ) ;
#202 = EDGE_CURVE ( 'NONE', #214, #214, #38, .T. ) ;
#203 = DATE_TIME_ROLE ( 'creation_date' ) ;
#204 = APPROVAL_ROLE ( '' ) ;
#205 = ORIENTED_EDGE ( 'NONE', *, *, #101, .T. ) ;
#206 = ORIENTED_EDGE ( 'NONE', *, *, #15, .F. ) ;
#207 = PERSON_AND_ORGANIZATION ( #251, #21 ) ;
#208 = DIRECTION ( 'NONE',  ( 1.510825004591027679E-30, 1.000000000000000000, 4.327174794786742389E-16 ) ) ;
#209 = CARTESIAN_POINT ( 'NONE',  ( 9.349985519257115802E-14, -1.158792436334662166E-14, 26.77942286340599054 ) ) ;
#210 = DIRECTION ( 'NONE',  ( 3.491481338843133355E-15, -4.327174794786742882E-16, 1.000000000000000000 ) ) ;
#211 = DIRECTION ( 'NONE',  ( -3.491481338843133355E-15, 4.327174794786742882E-16, -1.000000000000000000 ) ) ;
#212 = APPROVAL_PERSON_ORGANIZATION ( #189, #117, #62 ) ;
#213 = FACE_OUTER_BOUND ( 'NONE', #122, .T. ) ;
#214 = VERTEX_POINT ( 'NONE', #93 ) ;
#215 = CARTESIAN_POINT ( 'NONE',  ( 8.554129280165677352E-14, 2.183974596215560560, 24.50000000000000000 ) ) ;
#216 = CLOSED_SHELL ( 'NONE', ( #67, #41, #60 ) ) ;
#217 = LOCAL_TIME ( 13, 35, 59.00000000000000000, #80 ) ;
#218 = DIRECTION ( 'NONE',  ( -1.480164943273715368E-30, 1.000000000000000000, 4.327174794786742882E-16 ) ) ;
#219 = AXIS2_PLACEMENT_3D ( 'NONE', #16, #30, #136 ) ;
#220 = COORDINATED_UNIVERSAL_TIME_OFFSET ( 1, 0, .AHEAD. ) ;
#221 = ADVANCED_FACE ( 'NONE', ( #89, #213 ), #261, .T. ) ;
#222 = SHAPE_DEFINITION_REPRESENTATION ( #39, #40 ) ;
#223 = ORIENTED_EDGE ( 'NONE', *, *, #253, .F. ) ;
#224 = ORIENTED_EDGE ( 'NONE', *, *, #202, .T. ) ;
#225 = ADVANCED_FACE ( 'NONE', ( #47, #22 ), #102, .T. ) ;
#226 = AXIS2_PLACEMENT_3D ( 'NONE', #88, #66, #147 ) ;
#227 = LOCAL_TIME ( 13, 35, 59.00000000000000000, #262 ) ;
#228 = CARTESIAN_POINT ( 'NONE',  ( 5.935518276033326704E-14, -7.356197151137462899E-15, 17.00000000000000000 ) ) ;
#229 = CARTESIAN_POINT ( 'NONE',  ( 0.0000000000000000000, 0.0000000000000000000, 0.0000000000000000000 ) ) ;
#230 = EDGE_CURVE ( 'NONE', #138, #138, #257, .T. ) ;
#231 = DIRECTION ( 'NONE',  ( 3.491481338843133355E-15, -4.327174794786742882E-16, 1.000000000000000000 ) ) ;
#232 = CYLINDRICAL_SURFACE ( 'NONE', #81, 2.050000000000004263 ) ;
#233 = APPLICATION_PROTOCOL_DEFINITION ( 'international standard', 'config_control_design', 1994, #110 ) ;
#234 = VERTEX_POINT ( 'NONE', #14 ) ;
#235 = FACE_OUTER_BOUND ( 'NONE', #165, .T. ) ;
#236 = CIRCLE ( 'NONE', #25, 2.050000000000004263 ) ;
#237 = CARTESIAN_POINT ( 'NONE',  ( 2.304377683636468267E-13, 1.724723750061124754E-32, 66.00000000000000000 ) ) ;
#238 = PRODUCT_DEFINITION_FORMATION_WITH_SPECIFIED_SOURCE ( 'ANY', '', #5, .NOT_KNOWN. ) ;
#239 = ADVANCED_FACE ( 'NONE', ( #235, #53 ), #69, .T. ) ;
#240 = APPROVAL_DATE_TIME ( #183, #161 ) ;
#241 = EDGE_LOOP ( 'NONE', ( #61 ) ) ;
#242 = PERSON_AND_ORGANIZATION ( #251, #21 ) ;
#243 = CONICAL_SURFACE ( 'NONE', #196, 2.999999999999993783, 1.221730476396026388 ) ;
#244 = PERSON_AND_ORGANIZATION ( #251, #21 ) ;
#245 = ADVANCED_FACE ( 'NONE', ( #157, #201 ), #149, .F. ) ;
#246 = DIRECTION ( 'NONE',  ( 1.510825004591027679E-30, 1.000000000000000000, 4.327174794786742389E-16 ) ) ;
#247 = PRODUCT_RELATED_PRODUCT_CATEGORY ( 'detail', '', ( #5 ) ) ;
#248 = DIRECTION ( 'NONE',  ( 0.0000000000000000000, 1.000000000000000000, 0.0000000000000000000 ) ) ;
#249 = DIRECTION ( 'NONE',  ( -4.275831445896958607E-31, -1.000000000000000000, -1.224646799147353207E-16 ) ) ;
#250 = CARTESIAN_POINT ( 'NONE',  ( 0.0000000000000000000, 0.0000000000000000000, 0.0000000000000000000 ) ) ;
#251 = PERSON ( 'UNSPECIFIED', 'UNSPECIFIED', 'UNSPECIFIED', ('UNSPECIFIED'), ('UNSPECIFIED'), ('UNSPECIFIED') ) ;
#252 = FACE_OUTER_BOUND ( 'NONE', #174, .T. ) ;
#253 = EDGE_CURVE ( 'NONE', #258, #258, #13, .T. ) ;
#254 = DIRECTION ( 'NONE',  ( -3.491481338843133355E-15, 1.224646799147353207E-16, -1.000000000000000000 ) ) ;
#255 = VERTEX_POINT ( 'NONE', #32 ) ;
#256 = ADVANCED_FACE ( 'NONE', ( #180 ), #200, .F. ) ;
#257 = CIRCLE ( 'NONE', #154, 3.000000000000000444 ) ;
#258 = VERTEX_POINT ( 'NONE', #140 ) ;
#259 = PRODUCT_DEFINITION ( 'UNKNOWN', '', #238, #37 ) ;
#260 = ORIENTED_EDGE ( 'NONE', *, *, #15, .T. ) ;
#261 = CONICAL_SURFACE ( 'NONE', #86, 3.500000000000010214, 0.5235987755983002589 ) ;
#262 = COORDINATED_UNIVERSAL_TIME_OFFSET ( 1, 0, .AHEAD. ) ;
#263 = EDGE_LOOP ( 'NONE', ( #98 ) ) ;
ENDSEC;
END-ISO-10303-21;
