ISO-10303-21;
HEADER;
FILE_DESCRIPTION (( 'STEP AP203' ),
    '1' );
FILE_NAME ('43319.step',
    '2021-10-13T11:35:58',
    ( '' ),
    ( '' ),
    'SwSTEP 2.0',
    'SolidWorks 2019',
    '' );
FILE_SCHEMA (( 'CONFIG_CONTROL_DESIGN' ));
ENDSEC;

DATA;
#1 = EDGE_LOOP ( 'NONE', ( #254 ) ) ;
#2 = AXIS2_PLACEMENT_3D ( 'NONE', #204, #75, #138 ) ;
#3 = ORIENTED_EDGE ( 'NONE', *, *, #117, .T. ) ;
#4 = DIRECTION ( 'NONE',  ( 0.0000000000000000000, 1.000000000000000000, 0.0000000000000000000 ) ) ;
#5 = CARTESIAN_POINT ( 'NONE',  ( 2.541590561669657481E-15, -8.914699647580478059E-17, 0.7279404685324158963 ) ) ;
#6 = VERTEX_POINT ( 'NONE', #249 ) ;
#7 = ORIENTED_EDGE ( 'NONE', *, *, #260, .T. ) ;
#8 = CARTESIAN_POINT ( 'NONE',  ( 9.077851480992139151E-14, -3.000000000000009770, 25.99999999999997868 ) ) ;
#9 = PRODUCT_DEFINITION_FORMATION_WITH_SPECIFIED_SOURCE ( 'ANY', '', #61, .NOT_KNOWN. ) ;
#10 = CYLINDRICAL_SURFACE ( 'NONE', #15, 2.000000000000004441 ) ;
#11 = PERSON_AND_ORGANIZATION ( #261, #185 ) ;
#12 = CARTESIAN_POINT ( 'NONE',  ( 8.379555213223520053E-14, 1.999999999999997335, 24.00000000000000000 ) ) ;
#13 = CARTESIAN_POINT ( 'NONE',  ( 5.935518276033326704E-14, -2.000000000000011546, 17.00000000000000000 ) ) ;
#14 = FACE_OUTER_BOUND ( 'NONE', #128, .T. ) ;
#15 = AXIS2_PLACEMENT_3D ( 'NONE', #196, #146, #232 ) ;
#16 = CARTESIAN_POINT ( 'NONE',  ( 2.304377683636468267E-13, -8.082668874372532400E-15, 66.00000000000000000 ) ) ;
#17 = FACE_OUTER_BOUND ( 'NONE', #154, .T. ) ;
#18 = AXIS2_PLACEMENT_3D ( 'NONE', #130, #144, #68 ) ;
#19 = PRODUCT_DEFINITION_SHAPE ( 'NONE', 'NONE',  #210 ) ;
#20 = ORIENTED_EDGE ( 'NONE', *, *, #173, .T. ) ;
#21 = AXIS2_PLACEMENT_3D ( 'NONE', #163, #98, #257 ) ;
#22 = ADVANCED_FACE ( 'NONE', ( #87 ), #174, .T. ) ;
#23 = DESIGN_CONTEXT ( 'detailed design', #219, 'design' ) ;
#24 = ORIENTED_EDGE ( 'NONE', *, *, #143, .F. ) ;
#25 = DATE_AND_TIME ( #50, #141 ) ;
#26 = DIRECTION ( 'NONE',  ( 0.0000000000000000000, -1.000000000000000000, 0.0000000000000000000 ) ) ;
#27 = ADVANCED_FACE ( 'NONE', ( #49, #105 ), #177, .T. ) ;
#28 = DIRECTION ( 'NONE',  ( 0.0000000000000000000, 0.0000000000000000000, 1.000000000000000000 ) ) ;
#29 = DIRECTION ( 'NONE',  ( 0.0000000000000000000, -1.000000000000000000, 0.0000000000000000000 ) ) ;
#30 = APPLICATION_PROTOCOL_DEFINITION ( 'international standard', 'config_control_design', 1994, #219 ) ;
#31 = ORIENTED_EDGE ( 'NONE', *, *, #117, .F. ) ;
#32 = PERSON_AND_ORGANIZATION_ROLE ( 'design_supplier' ) ;
#33 = AXIS2_PLACEMENT_3D ( 'NONE', #92, #90, #29 ) ;
#34 = CC_DESIGN_APPROVAL ( #217, ( #158 ) ) ;
#35 = CARTESIAN_POINT ( 'NONE',  ( 8.554129280165677352E-14, -1.060157824722752006E-14, 24.50000000000000000 ) ) ;
#36 = DATE_AND_TIME ( #108, #215 ) ;
#37 = CYLINDRICAL_SURFACE ( 'NONE', #180, 2.999999999999998224 ) ;
#38 = CARTESIAN_POINT ( 'NONE',  ( 8.379555213223520053E-14, -1.040834085586084257E-14, 24.00000000000000000 ) ) ;
#39 = CIRCLE ( 'NONE', #169, 2.300000000000000711 ) ;
#40 = CALENDAR_DATE ( 2021, 13, 10 ) ;
#41 = CC_DESIGN_DATE_AND_TIME_ASSIGNMENT ( #25, #220, ( #210 ) ) ;
#42 = ORIENTED_EDGE ( 'NONE', *, *, #173, .F. ) ;
#43 = CC_DESIGN_PERSON_AND_ORGANIZATION_ASSIGNMENT ( #110, #73, ( #158 ) ) ;
#44 = EDGE_LOOP ( 'NONE', ( #7 ) ) ;
#45 = AXIS2_PLACEMENT_3D ( 'NONE', #109, #111, #4 ) ;
#46 = EDGE_LOOP ( 'NONE', ( #82 ) ) ;
#47 = CARTESIAN_POINT ( 'NONE',  ( 5.935518276033326704E-14, -7.356197151137462899E-15, 17.00000000000000000 ) ) ;
#48 = MECHANICAL_CONTEXT ( 'NONE', #192, 'mechanical' ) ;
#49 = FACE_OUTER_BOUND ( 'NONE', #83, .T. ) ;
#50 = CALENDAR_DATE ( 2021, 13, 10 ) ;
#51 = DIRECTION ( 'NONE',  ( 1.510825004591027855E-30, 1.000000000000000000, 4.327174794786743375E-16 ) ) ;
#52 = CALENDAR_DATE ( 2021, 13, 10 ) ;
#53 = DIRECTION ( 'NONE',  ( -4.275831445896958607E-31, -1.000000000000000000, -1.224646799147353207E-16 ) ) ;
#54 = APPLICATION_PROTOCOL_DEFINITION ( 'international standard', 'config_control_design', 1994, #192 ) ;
#55 = FACE_OUTER_BOUND ( 'NONE', #252, .T. ) ;
#56 = CARTESIAN_POINT ( 'NONE',  ( 0.0000000000000000000, 0.0000000000000000000, 0.0000000000000000000 ) ) ;
#57 = CARTESIAN_POINT ( 'NONE',  ( 3.812385842504470444E-15, -1.337204947137066162E-16, 1.091910702798619459 ) ) ;
#58 = VERTEX_POINT ( 'NONE', #12 ) ;
#59 = DATE_AND_TIME ( #40, #151 ) ;
#60 = EDGE_CURVE ( 'NONE', #241, #241, #251, .T. ) ;
#61 = PRODUCT ( '43319', '43319', '', ( #48 ) ) ;
#62 = EDGE_CURVE ( 'NONE', #76, #76, #85, .T. ) ;
#63 = DIRECTION ( 'NONE',  ( 0.0000000000000000000, 1.000000000000000000, 0.0000000000000000000 ) ) ;
#64 = VERTEX_POINT ( 'NONE', #71 ) ;
#65 = FACE_BOUND ( 'NONE', #84, .T. ) ;
#66 = AXIS2_PLACEMENT_3D ( 'NONE', #99, #72, #228 ) ;
#67 = PERSON_AND_ORGANIZATION ( #261, #185 ) ;
#68 = DIRECTION ( 'NONE',  ( 0.0000000000000000000, 1.000000000000000000, 0.0000000000000000000 ) ) ;
#69 = APPROVAL_DATE_TIME ( #36, #101 ) ;
#70 = EDGE_LOOP ( 'NONE', ( #250 ) ) ;
#71 = CARTESIAN_POINT ( 'NONE',  ( 2.304377683636468267E-13, 2.299999999999992717, 66.00000000000000000 ) ) ;
#72 = DIRECTION ( 'NONE',  ( -3.491481338843133355E-15, 1.224646799147353207E-16, -1.000000000000000000 ) ) ;
#73 = PERSON_AND_ORGANIZATION_ROLE ( 'classification_officer' ) ;
#74 = CC_DESIGN_APPROVAL ( #101, ( #210 ) ) ;
#75 = DIRECTION ( 'NONE',  ( 3.491481338843133355E-15, -4.327174794786742882E-16, 1.000000000000000000 ) ) ;
#76 = VERTEX_POINT ( 'NONE', #240 ) ;
#77 = EDGE_CURVE ( 'NONE', #58, #58, #80, .T. ) ;
#78 = DIRECTION ( 'NONE',  ( 4.275831445896958607E-31, 1.000000000000000000, 1.224646799147353454E-16 ) ) ;
#79 = CC_DESIGN_PERSON_AND_ORGANIZATION_ASSIGNMENT ( #97, #32, ( #9 ) ) ;
#80 = CIRCLE ( 'NONE', #45, 2.000000000000007994 ) ;
#81 = CC_DESIGN_APPROVAL ( #160, ( #9 ) ) ;
#82 = ORIENTED_EDGE ( 'NONE', *, *, #62, .T. ) ;
#83 = EDGE_LOOP ( 'NONE', ( #182 ) ) ;
#84 = EDGE_LOOP ( 'NONE', ( #221 ) ) ;
#85 = CIRCLE ( 'NONE', #238, 2.133974596215570507 ) ;
#86 = LOCAL_TIME ( 13, 35, 58.00000000000000000, #102 ) ;
#87 = FACE_OUTER_BOUND ( 'NONE', #148, .T. ) ;
#88 = APPROVAL_DATE_TIME ( #197, #160 ) ;
#89 = EDGE_CURVE ( 'NONE', #255, #255, #191, .T. ) ;
#90 = DIRECTION ( 'NONE',  ( 3.491481338843133355E-15, -4.327174794786742882E-16, 1.000000000000000000 ) ) ;
#91 = VERTEX_POINT ( 'NONE', #95 ) ;
#92 = CARTESIAN_POINT ( 'NONE',  ( 9.077851480992139151E-14, -1.125065446644552203E-14, 25.99999999999997868 ) ) ;
#93 = AXIS2_PLACEMENT_3D ( 'NONE', #131, #28, #195 ) ;
#94 = EDGE_LOOP ( 'NONE', ( #42 ) ) ;
#95 = CARTESIAN_POINT ( 'NONE',  ( 2.279937314264566018E-13, 2.999999999999992895, 65.29999999999999716 ) ) ;
#96 = FACE_OUTER_BOUND ( 'NONE', #46, .T. ) ;
#97 = PERSON_AND_ORGANIZATION ( #261, #185 ) ;
#98 = DIRECTION ( 'NONE',  ( -3.491481338843133355E-15, 1.224646799147353207E-16, -1.000000000000000000 ) ) ;
#99 = CARTESIAN_POINT ( 'NONE',  ( 2.279937314264566018E-13, -7.996943598432214956E-15, 65.29999999999999716 ) ) ;
#100 = DIRECTION ( 'NONE',  ( 0.0000000000000000000, 1.000000000000000000, 0.0000000000000000000 ) ) ;
#101 = APPROVAL ( #222, 'UNSPECIFIED' ) ;
#102 = COORDINATED_UNIVERSAL_TIME_OFFSET ( 1, 0, .AHEAD. ) ;
#103 = ADVANCED_FACE ( 'NONE', ( #248, #65 ), #256, .T. ) ;
#104 =( LENGTH_UNIT ( ) NAMED_UNIT ( * ) SI_UNIT ( .MILLI., .METRE. ) );
#105 = FACE_OUTER_BOUND ( 'NONE', #126, .T. ) ;
#106 = PERSON_AND_ORGANIZATION ( #261, #185 ) ;
#107 = FACE_OUTER_BOUND ( 'NONE', #1, .T. ) ;
#108 = CALENDAR_DATE ( 2021, 13, 10 ) ;
#109 = CARTESIAN_POINT ( 'NONE',  ( 8.379555213223520053E-14, -1.038521950748818292E-14, 24.00000000000000000 ) ) ;
#110 = PERSON_AND_ORGANIZATION ( #261, #185 ) ;
#111 = DIRECTION ( 'NONE',  ( -3.491481338843133355E-15, 4.327174794786742882E-16, -1.000000000000000000 ) ) ;
#112 = APPROVAL_STATUS ( 'not_yet_approved' ) ;
#113 = DIRECTION ( 'NONE',  ( -5.135813185032639159E-31, -1.000000000000000000, -1.445602896647342121E-16 ) ) ;
#114 = DIRECTION ( 'NONE',  ( 1.510825004591027855E-30, 1.000000000000000000, 4.327174794786742882E-16 ) ) ;
#115 = ADVANCED_FACE ( 'NONE', ( #199, #107 ), #10, .T. ) ;
#116 = AXIS2_PLACEMENT_3D ( 'NONE', #183, #184, #159 ) ;
#117 = EDGE_CURVE ( 'NONE', #155, #155, #165, .T. ) ;
#118 = DIRECTION ( 'NONE',  ( 3.491481338843133355E-15, -1.224646799147353207E-16, 1.000000000000000000 ) ) ;
#119 = COORDINATED_UNIVERSAL_TIME_OFFSET ( 1, 0, .AHEAD. ) ;
#120 = APPROVAL_DATE_TIME ( #59, #217 ) ;
#121 = ADVANCED_FACE ( 'NONE', ( #179 ), #234, .T. ) ;
#122 = APPROVAL_PERSON_ORGANIZATION ( #11, #101, #127 ) ;
#123 = AXIS2_PLACEMENT_3D ( 'NONE', #38, #203, #114 ) ;
#124 = APPROVAL_PERSON_ORGANIZATION ( #147, #160, #202 ) ;
#125 = UNCERTAINTY_MEASURE_WITH_UNIT (LENGTH_MEASURE( 1.000000000000000082E-05 ), #104, 'distance_accuracy_value', 'NONE');
#126 = EDGE_LOOP ( 'NONE', ( #31 ) ) ;
#127 = APPROVAL_ROLE ( '' ) ;
#128 = EDGE_LOOP ( 'NONE', ( #24 ) ) ;
#129 = CC_DESIGN_SECURITY_CLASSIFICATION ( #158, ( #9 ) ) ;
#130 = CARTESIAN_POINT ( 'NONE',  ( 2.304377683636468267E-13, -8.082668874372532400E-15, 66.00000000000000000 ) ) ;
#131 = CARTESIAN_POINT ( 'NONE',  ( 0.0000000000000000000, 0.0000000000000000000, 0.0000000000000000000 ) ) ;
#132 = DIRECTION ( 'NONE',  ( -3.491481338843133355E-15, 4.327174794786742882E-16, -1.000000000000000000 ) ) ;
#133 = PERSON_AND_ORGANIZATION ( #261, #185 ) ;
#134 = DIRECTION ( 'NONE',  ( -3.491481338843133355E-15, 4.327174794786742882E-16, -1.000000000000000000 ) ) ;
#135 = DIRECTION ( 'NONE',  ( -3.491481338843133355E-15, 1.224646799147353207E-16, -1.000000000000000000 ) ) ;
#136 = CARTESIAN_POINT ( 'NONE',  ( 5.935518276033326704E-14, -7.356197151137462899E-15, 17.00000000000000000 ) ) ;
#137 = PRODUCT_RELATED_PRODUCT_CATEGORY ( 'detail', '', ( #61 ) ) ;
#138 = DIRECTION ( 'NONE',  ( 0.0000000000000000000, -1.000000000000000000, 0.0000000000000000000 ) ) ;
#139 = AXIS2_PLACEMENT_3D ( 'NONE', #5, #224, #246 ) ;
#140 = TOROIDAL_SURFACE ( 'NONE', #123, 3.000000000000007994, 0.9999999999999986677 ) ;
#141 = LOCAL_TIME ( 13, 35, 58.00000000000000000, #214 ) ;
#142 = ADVANCED_FACE ( 'NONE', ( #55, #96 ), #140, .F. ) ;
#143 = EDGE_CURVE ( 'NONE', #64, #64, #39, .T. ) ;
#144 = DIRECTION ( 'NONE',  ( -3.491481338843133355E-15, 1.224646799147353207E-16, -1.000000000000000000 ) ) ;
#145 =( NAMED_UNIT ( * ) PLANE_ANGLE_UNIT ( ) SI_UNIT ( $, .RADIAN. ) );
#146 = DIRECTION ( 'NONE',  ( -3.491481338843133355E-15, 4.327174794786742882E-16, -1.000000000000000000 ) ) ;
#147 = PERSON_AND_ORGANIZATION ( #261, #185 ) ;
#148 = EDGE_LOOP ( 'NONE', ( #168 ) ) ;
#149 = CIRCLE ( 'NONE', #245, 2.000000000000004441 ) ;
#150 = ADVANCED_FACE ( 'NONE', ( #14 ), #156, .F. ) ;
#151 = LOCAL_TIME ( 13, 35, 58.00000000000000000, #119 ) ;
#152 = PERSON_AND_ORGANIZATION_ROLE ( 'creator' ) ;
#153 = CC_DESIGN_DATE_AND_TIME_ASSIGNMENT ( #258, #186, ( #158 ) ) ;
#154 = EDGE_LOOP ( 'NONE', ( #201 ) ) ;
#155 = VERTEX_POINT ( 'NONE', #13 ) ;
#156 = PLANE ( 'NONE',  #21 ) ;
#157 = ADVANCED_BREP_SHAPE_REPRESENTATION ( '43319', ( #172, #167, #93 ), #242 ) ;
#158 = SECURITY_CLASSIFICATION ( '', '', #247 ) ;
#159 = DIRECTION ( 'NONE',  ( -4.275831445896958607E-31, -1.000000000000000000, -1.224646799147353207E-16 ) ) ;
#160 = APPROVAL ( #112, 'UNSPECIFIED' ) ;
#161 = FACE_BOUND ( 'NONE', #194, .T. ) ;
#162 = APPROVAL_ROLE ( '' ) ;
#163 = CARTESIAN_POINT ( 'NONE',  ( 2.304377683636468267E-13, 1.724723750061124754E-32, 66.00000000000000000 ) ) ;
#164 = AXIS2_PLACEMENT_3D ( 'NONE', #213, #237, #53 ) ;
#165 = CIRCLE ( 'NONE', #223, 2.000000000000004441 ) ;
#166 = APPROVAL_PERSON_ORGANIZATION ( #188, #217, #162 ) ;
#167 = MANIFOLD_SOLID_BREP ( 'Corps-Déplacer/Copier1[2]', #178 ) ;
#168 = ORIENTED_EDGE ( 'NONE', *, *, #260, .F. ) ;
#169 = AXIS2_PLACEMENT_3D ( 'NONE', #16, #135, #100 ) ;
#170 = ADVANCED_FACE ( 'NONE', ( #161, #189 ), #198, .T. ) ;
#171 = CC_DESIGN_PERSON_AND_ORGANIZATION_ASSIGNMENT ( #133, #176, ( #9 ) ) ;
#172 = MANIFOLD_SOLID_BREP ( 'Corps-Déplacer/Copier1[1]', #209 ) ;
#173 = EDGE_CURVE ( 'NONE', #91, #91, #230, .T. ) ;
#174 = PLANE ( 'NONE',  #164 ) ;
#175 = EDGE_LOOP ( 'NONE', ( #20 ) ) ;
#176 = PERSON_AND_ORGANIZATION_ROLE ( 'creator' ) ;
#177 = CYLINDRICAL_SURFACE ( 'NONE', #263, 2.000000000000004441 ) ;
#178 = CLOSED_SHELL ( 'NONE', ( #121, #115, #22 ) ) ;
#179 = FACE_OUTER_BOUND ( 'NONE', #70, .T. ) ;
#180 = AXIS2_PLACEMENT_3D ( 'NONE', #56, #262, #78 ) ;
#181 =( NAMED_UNIT ( * ) SI_UNIT ( $, .STERADIAN. ) SOLID_ANGLE_UNIT ( ) );
#182 = ORIENTED_EDGE ( 'NONE', *, *, #77, .T. ) ;
#183 = CARTESIAN_POINT ( 'NONE',  ( 5.935518276033326704E-14, 2.249639673992780117E-32, 17.00000000000000000 ) ) ;
#184 = DIRECTION ( 'NONE',  ( 3.491481338843133355E-15, -1.224646799147353207E-16, 1.000000000000000000 ) ) ;
#185 = ORGANIZATION ( 'UNSPECIFIED', 'UNSPECIFIED', '' ) ;
#186 = DATE_TIME_ROLE ( 'classification_date' ) ;
#187 = DIRECTION ( 'NONE',  ( 0.0000000000000000000, -1.000000000000000000, 0.0000000000000000000 ) ) ;
#188 = PERSON_AND_ORGANIZATION ( #261, #185 ) ;
#189 = FACE_OUTER_BOUND ( 'NONE', #212, .T. ) ;
#190 = CC_DESIGN_PERSON_AND_ORGANIZATION_ASSIGNMENT ( #106, #152, ( #210 ) ) ;
#191 = CIRCLE ( 'NONE', #33, 2.999999999999998224 ) ;
#192 = APPLICATION_CONTEXT ( 'configuration controlled 3d designs of mechanical parts and assemblies' ) ;
#193 = COORDINATED_UNIVERSAL_TIME_OFFSET ( 1, 0, .AHEAD. ) ;
#194 = EDGE_LOOP ( 'NONE', ( #211 ) ) ;
#195 = DIRECTION ( 'NONE',  ( 1.000000000000000000, 0.0000000000000000000, 0.0000000000000000000 ) ) ;
#196 = CARTESIAN_POINT ( 'NONE',  ( 0.0000000000000000000, 0.0000000000000000000, 0.0000000000000000000 ) ) ;
#197 = DATE_AND_TIME ( #52, #229 ) ;
#198 = CONICAL_SURFACE ( 'NONE', #2, 3.500000000000010214, 0.5235987755983000369 ) ;
#199 = FACE_OUTER_BOUND ( 'NONE', #44, .T. ) ;
#200 = COORDINATED_UNIVERSAL_TIME_OFFSET ( 1, 0, .AHEAD. ) ;
#201 = ORIENTED_EDGE ( 'NONE', *, *, #89, .T. ) ;
#202 = APPROVAL_ROLE ( '' ) ;
#203 = DIRECTION ( 'NONE',  ( -3.491481338843133355E-15, 4.327174794786742882E-16, -1.000000000000000000 ) ) ;
#204 = CARTESIAN_POINT ( 'NONE',  ( 9.380222634619890845E-14, -1.162539879633563238E-14, 26.86602540378443393 ) ) ;
#205 = AXIS2_PLACEMENT_3D ( 'NONE', #57, #118, #113 ) ;
#206 = ADVANCED_FACE ( 'NONE', ( #225 ), #207, .F. ) ;
#207 = PLANE ( 'NONE',  #116 ) ;
#208 = APPROVAL_STATUS ( 'not_yet_approved' ) ;
#209 = CLOSED_SHELL ( 'NONE', ( #244, #103, #150, #27, #170, #142, #206 ) ) ;
#210 = PRODUCT_DEFINITION ( 'UNKNOWN', '', #9, #23 ) ;
#211 = ORIENTED_EDGE ( 'NONE', *, *, #62, .F. ) ;
#212 = EDGE_LOOP ( 'NONE', ( #236 ) ) ;
#213 = CARTESIAN_POINT ( 'NONE',  ( 5.935518276033326704E-14, 2.249639673992780117E-32, 17.00000000000000000 ) ) ;
#214 = COORDINATED_UNIVERSAL_TIME_OFFSET ( 1, 0, .AHEAD. ) ;
#215 = LOCAL_TIME ( 13, 35, 58.00000000000000000, #200 ) ;
#216 = CARTESIAN_POINT ( 'NONE',  ( 0.0000000000000000000, 0.0000000000000000000, 0.0000000000000000000 ) ) ;
#217 = APPROVAL ( #208, 'UNSPECIFIED' ) ;
#218 = EDGE_LOOP ( 'NONE', ( #3 ) ) ;
#219 = APPLICATION_CONTEXT ( 'configuration controlled 3d designs of mechanical parts and assemblies' ) ;
#220 = DATE_TIME_ROLE ( 'creation_date' ) ;
#221 = ORIENTED_EDGE ( 'NONE', *, *, #143, .T. ) ;
#222 = APPROVAL_STATUS ( 'not_yet_approved' ) ;
#223 = AXIS2_PLACEMENT_3D ( 'NONE', #47, #233, #26 ) ;
#224 = DIRECTION ( 'NONE',  ( -3.491481338843133355E-15, 1.224646799147353207E-16, -1.000000000000000000 ) ) ;
#225 = FACE_OUTER_BOUND ( 'NONE', #218, .T. ) ;
#226 = SHAPE_DEFINITION_REPRESENTATION ( #19, #157 ) ;
#227 = DIRECTION ( 'NONE',  ( -3.491481338843133355E-15, 1.224646799147353207E-16, -1.000000000000000000 ) ) ;
#228 = DIRECTION ( 'NONE',  ( 0.0000000000000000000, 1.000000000000000000, 0.0000000000000000000 ) ) ;
#229 = LOCAL_TIME ( 13, 35, 58.00000000000000000, #193 ) ;
#230 = CIRCLE ( 'NONE', #66, 3.000000000000000444 ) ;
#231 = CC_DESIGN_PERSON_AND_ORGANIZATION_ASSIGNMENT ( #67, #253, ( #61 ) ) ;
#232 = DIRECTION ( 'NONE',  ( 1.510825004591027855E-30, 1.000000000000000000, 4.327174794786743375E-16 ) ) ;
#233 = DIRECTION ( 'NONE',  ( -3.491481338843133355E-15, 1.224646799147353207E-16, -1.000000000000000000 ) ) ;
#234 = CONICAL_SURFACE ( 'NONE', #205, 2.999999999999993783, 1.221730476396026388 ) ;
#235 = ORIENTED_EDGE ( 'NONE', *, *, #77, .F. ) ;
#236 = ORIENTED_EDGE ( 'NONE', *, *, #89, .F. ) ;
#237 = DIRECTION ( 'NONE',  ( 3.491481338843133355E-15, -1.224646799147353207E-16, 1.000000000000000000 ) ) ;
#238 = AXIS2_PLACEMENT_3D ( 'NONE', #35, #132, #63 ) ;
#239 = FACE_OUTER_BOUND ( 'NONE', #175, .T. ) ;
#240 = CARTESIAN_POINT ( 'NONE',  ( 8.554129280165677352E-14, 2.133974596215560293, 24.50000000000000000 ) ) ;
#241 = VERTEX_POINT ( 'NONE', #259 ) ;
#242 =( GEOMETRIC_REPRESENTATION_CONTEXT ( 3 ) GLOBAL_UNCERTAINTY_ASSIGNED_CONTEXT ( ( #125 ) ) GLOBAL_UNIT_ASSIGNED_CONTEXT ( ( #104, #145, #181 ) ) REPRESENTATION_CONTEXT ( 'NONE', 'WORKASPACE' ) );
#243 = CALENDAR_DATE ( 2021, 13, 10 ) ;
#244 = ADVANCED_FACE ( 'NONE', ( #17, #239 ), #37, .T. ) ;
#245 = AXIS2_PLACEMENT_3D ( 'NONE', #136, #227, #187 ) ;
#246 = DIRECTION ( 'NONE',  ( -3.851859888774462948E-31, -1.000000000000000000, -1.084202172485501969E-16 ) ) ;
#247 = SECURITY_CLASSIFICATION_LEVEL ( 'unclassified' ) ;
#248 = FACE_OUTER_BOUND ( 'NONE', #94, .T. ) ;
#249 = CARTESIAN_POINT ( 'NONE',  ( 5.935518276033326704E-14, -2.000000000000011546, 17.00000000000000000 ) ) ;
#250 = ORIENTED_EDGE ( 'NONE', *, *, #60, .T. ) ;
#251 = CIRCLE ( 'NONE', #139, 2.000000000000004441 ) ;
#252 = EDGE_LOOP ( 'NONE', ( #235 ) ) ;
#253 = PERSON_AND_ORGANIZATION_ROLE ( 'design_owner' ) ;
#254 = ORIENTED_EDGE ( 'NONE', *, *, #60, .F. ) ;
#255 = VERTEX_POINT ( 'NONE', #8 ) ;
#256 = CONICAL_SURFACE ( 'NONE', #18, 2.300000000000000711, 0.7853981633974437271 ) ;
#257 = DIRECTION ( 'NONE',  ( 4.275831445896958607E-31, 1.000000000000000000, 1.224646799147353207E-16 ) ) ;
#258 = DATE_AND_TIME ( #243, #86 ) ;
#259 = CARTESIAN_POINT ( 'NONE',  ( 2.541590561669656692E-15, -2.000000000000004441, 0.7279404685324156743 ) ) ;
#260 = EDGE_CURVE ( 'NONE', #6, #6, #149, .T. ) ;
#261 = PERSON ( 'UNSPECIFIED', 'UNSPECIFIED', 'UNSPECIFIED', ('UNSPECIFIED'), ('UNSPECIFIED'), ('UNSPECIFIED') ) ;
#262 = DIRECTION ( 'NONE',  ( -3.491481338843133355E-15, 1.224646799147353207E-16, -1.000000000000000000 ) ) ;
#263 = AXIS2_PLACEMENT_3D ( 'NONE', #216, #134, #51 ) ;
ENDSEC;
END-ISO-10303-21;
