ISO-10303-21;
HEADER;
FILE_DESCRIPTION (( 'STEP AP203' ),
    '1' );
FILE_NAME ('43318.step',
    '2021-10-13T11:35:58',
    ( '' ),
    ( '' ),
    'SwSTEP 2.0',
    'SolidWorks 2019',
    '' );
FILE_SCHEMA (( 'CONFIG_CONTROL_DESIGN' ));
ENDSEC;

DATA;
#1 = CARTESIAN_POINT ( 'NONE',  ( 8.379555213223520053E-14, 1.949999999999997735, 24.00000000000000000 ) ) ;
#2 = DIRECTION ( 'NONE',  ( -3.491481338843133355E-15, 1.224646799147353207E-16, -1.000000000000000000 ) ) ;
#3 = AXIS2_PLACEMENT_3D ( 'NONE', #4, #115, #143 ) ;
#4 = CARTESIAN_POINT ( 'NONE',  ( 0.0000000000000000000, 0.0000000000000000000, 0.0000000000000000000 ) ) ;
#5 = CARTESIAN_POINT ( 'NONE',  ( 8.554129280165677352E-14, 2.083974596215560027, 24.50000000000000000 ) ) ;
#6 = AXIS2_PLACEMENT_3D ( 'NONE', #159, #223, #199 ) ;
#7 = DIRECTION ( 'NONE',  ( 0.0000000000000000000, 0.0000000000000000000, 1.000000000000000000 ) ) ;
#8 = EDGE_LOOP ( 'NONE', ( #154 ) ) ;
#9 = DATE_AND_TIME ( #210, #22 ) ;
#10 = PERSON_AND_ORGANIZATION ( #147, #179 ) ;
#11 = AXIS2_PLACEMENT_3D ( 'NONE', #70, #241, #66 ) ;
#12 = EDGE_LOOP ( 'NONE', ( #238 ) ) ;
#13 = ADVANCED_FACE ( 'NONE', ( #92, #263 ), #34, .T. ) ;
#14 = DIRECTION ( 'NONE',  ( -3.491481338843133355E-15, 4.327174794786742882E-16, -1.000000000000000000 ) ) ;
#15 = AXIS2_PLACEMENT_3D ( 'NONE', #38, #158, #20 ) ;
#16 = DIRECTION ( 'NONE',  ( 1.510825004591028030E-30, 1.000000000000000000, 4.327174794786742882E-16 ) ) ;
#17 = CARTESIAN_POINT ( 'NONE',  ( 8.379555213223520053E-14, -1.040834085586084257E-14, 24.00000000000000000 ) ) ;
#18 = FACE_OUTER_BOUND ( 'NONE', #213, .T. ) ;
#19 = ORIENTED_EDGE ( 'NONE', *, *, #112, .T. ) ;
#20 = DIRECTION ( 'NONE',  ( 0.0000000000000000000, 1.000000000000000000, 0.0000000000000000000 ) ) ;
#21 = CYLINDRICAL_SURFACE ( 'NONE', #3, 1.950000000000004396 ) ;
#22 = LOCAL_TIME ( 13, 35, 58.00000000000000000, #257 ) ;
#23 = ADVANCED_FACE ( 'NONE', ( #258, #68 ), #202, .T. ) ;
#24 = CALENDAR_DATE ( 2021, 13, 10 ) ;
#25 = AXIS2_PLACEMENT_3D ( 'NONE', #260, #31, #217 ) ;
#26 = EDGE_LOOP ( 'NONE', ( #19 ) ) ;
#27 = ADVANCED_FACE ( 'NONE', ( #129 ), #172, .F. ) ;
#28 = DATE_TIME_ROLE ( 'classification_date' ) ;
#29 = APPROVAL_DATE_TIME ( #234, #40 ) ;
#30 = PERSON_AND_ORGANIZATION ( #147, #179 ) ;
#31 = DIRECTION ( 'NONE',  ( 3.491481338843133355E-15, -4.327174794786742882E-16, 1.000000000000000000 ) ) ;
#32 = CARTESIAN_POINT ( 'NONE',  ( 2.304377683636468267E-13, -8.082668874372532400E-15, 66.00000000000000000 ) ) ;
#33 = CIRCLE ( 'NONE', #6, 1.950000000000004396 ) ;
#34 = CYLINDRICAL_SURFACE ( 'NONE', #69, 1.950000000000004396 ) ;
#35 = ORIENTED_EDGE ( 'NONE', *, *, #246, .T. ) ;
#36 = AXIS2_PLACEMENT_3D ( 'NONE', #226, #224, #43 ) ;
#37 = APPROVAL ( #251, 'UNSPECIFIED' ) ;
#38 = CARTESIAN_POINT ( 'NONE',  ( 8.379555213223520053E-14, -1.038521950748818292E-14, 24.00000000000000000 ) ) ;
#39 = CARTESIAN_POINT ( 'NONE',  ( 2.304377683636468267E-13, 1.724723750061124754E-32, 66.00000000000000000 ) ) ;
#40 = APPROVAL ( #233, 'UNSPECIFIED' ) ;
#41 = AXIS2_PLACEMENT_3D ( 'NONE', #32, #192, #240 ) ;
#42 =( NAMED_UNIT ( * ) SI_UNIT ( $, .STERADIAN. ) SOLID_ANGLE_UNIT ( ) );
#43 = DIRECTION ( 'NONE',  ( 4.275831445896958607E-31, 1.000000000000000000, 1.224646799147353454E-16 ) ) ;
#44 = PERSON_AND_ORGANIZATION_ROLE ( 'classification_officer' ) ;
#45 = ORIENTED_EDGE ( 'NONE', *, *, #112, .F. ) ;
#46 = PRODUCT_RELATED_PRODUCT_CATEGORY ( 'detail', '', ( #232 ) ) ;
#47 = CARTESIAN_POINT ( 'NONE',  ( 0.0000000000000000000, 0.0000000000000000000, 0.0000000000000000000 ) ) ;
#48 = FACE_OUTER_BOUND ( 'NONE', #125, .T. ) ;
#49 = EDGE_LOOP ( 'NONE', ( #183 ) ) ;
#50 = ORIENTED_EDGE ( 'NONE', *, *, #91, .T. ) ;
#51 = CC_DESIGN_APPROVAL ( #40, ( #194 ) ) ;
#52 = DIRECTION ( 'NONE',  ( 3.491481338843133355E-15, -1.224646799147353207E-16, 1.000000000000000000 ) ) ;
#53 = ORIENTED_EDGE ( 'NONE', *, *, #214, .F. ) ;
#54 = DIRECTION ( 'NONE',  ( 0.0000000000000000000, 1.000000000000000000, 0.0000000000000000000 ) ) ;
#55 = CLOSED_SHELL ( 'NONE', ( #256, #99, #239, #13, #23, #87, #27 ) ) ;
#56 = CARTESIAN_POINT ( 'NONE',  ( 5.935518276033326704E-14, -7.356197151137462899E-15, 17.00000000000000000 ) ) ;
#57 = DIRECTION ( 'NONE',  ( -4.275831445896958607E-31, -1.000000000000000000, -1.224646799147353207E-16 ) ) ;
#58 = AXIS2_PLACEMENT_3D ( 'NONE', #196, #174, #54 ) ;
#59 = CARTESIAN_POINT ( 'NONE',  ( 5.935518276033326704E-14, 2.249639673992780117E-32, 17.00000000000000000 ) ) ;
#60 = SECURITY_CLASSIFICATION ( '', '', #77 ) ;
#61 = COORDINATED_UNIVERSAL_TIME_OFFSET ( 1, 0, .AHEAD. ) ;
#62 = COORDINATED_UNIVERSAL_TIME_OFFSET ( 1, 0, .AHEAD. ) ;
#63 = ADVANCED_BREP_SHAPE_REPRESENTATION ( '43318', ( #150, #237, #72 ), #220 ) ;
#64 = ORIENTED_EDGE ( 'NONE', *, *, #214, .T. ) ;
#65 = DIRECTION ( 'NONE',  ( -3.491481338843133355E-15, 1.224646799147353207E-16, -1.000000000000000000 ) ) ;
#66 = DIRECTION ( 'NONE',  ( 0.0000000000000000000, -1.000000000000000000, 0.0000000000000000000 ) ) ;
#67 = EDGE_CURVE ( 'NONE', #121, #121, #95, .T. ) ;
#68 = FACE_OUTER_BOUND ( 'NONE', #135, .T. ) ;
#69 = AXIS2_PLACEMENT_3D ( 'NONE', #175, #14, #16 ) ;
#70 = CARTESIAN_POINT ( 'NONE',  ( 9.410459749982665889E-14, -1.166287322932464310E-14, 26.95262794416288088 ) ) ;
#71 = VERTEX_POINT ( 'NONE', #200 ) ;
#72 = AXIS2_PLACEMENT_3D ( 'NONE', #47, #7, #165 ) ;
#73 = FACE_OUTER_BOUND ( 'NONE', #153, .T. ) ;
#74 = DIRECTION ( 'NONE',  ( -3.491481338843133355E-15, 1.224646799147353207E-16, -1.000000000000000000 ) ) ;
#75 = VERTEX_POINT ( 'NONE', #247 ) ;
#76 = CIRCLE ( 'NONE', #166, 1.950000000000004396 ) ;
#77 = SECURITY_CLASSIFICATION_LEVEL ( 'unclassified' ) ;
#78 = UNCERTAINTY_MEASURE_WITH_UNIT (LENGTH_MEASURE( 1.000000000000000082E-05 ), #120, 'distance_accuracy_value', 'NONE');
#79 = APPROVAL ( #185, 'UNSPECIFIED' ) ;
#80 = PERSON_AND_ORGANIZATION_ROLE ( 'creator' ) ;
#81 = ORIENTED_EDGE ( 'NONE', *, *, #250, .F. ) ;
#82 = APPROVAL_ROLE ( '' ) ;
#83 = COORDINATED_UNIVERSAL_TIME_OFFSET ( 1, 0, .AHEAD. ) ;
#84 = AXIS2_PLACEMENT_3D ( 'NONE', #191, #65, #236 ) ;
#85 = APPLICATION_PROTOCOL_DEFINITION ( 'international standard', 'config_control_design', 1994, #138 ) ;
#86 = FACE_OUTER_BOUND ( 'NONE', #49, .T. ) ;
#87 = ADVANCED_FACE ( 'NONE', ( #48, #18 ), #206, .F. ) ;
#88 = ORIENTED_EDGE ( 'NONE', *, *, #228, .T. ) ;
#89 = DIRECTION ( 'NONE',  ( -3.491481338843133355E-15, 4.327174794786742882E-16, -1.000000000000000000 ) ) ;
#90 = EDGE_LOOP ( 'NONE', ( #81 ) ) ;
#91 = EDGE_CURVE ( 'NONE', #181, #181, #249, .T. ) ;
#92 = FACE_OUTER_BOUND ( 'NONE', #100, .T. ) ;
#93 = FACE_OUTER_BOUND ( 'NONE', #230, .T. ) ;
#94 = CARTESIAN_POINT ( 'NONE',  ( 2.478050797627916123E-15, -8.691832156390966662E-17, 0.7097419568191055683 ) ) ;
#95 = CIRCLE ( 'NONE', #84, 2.300000000000000711 ) ;
#96 = LOCAL_TIME ( 13, 35, 58.00000000000000000, #83 ) ;
#97 = VERTEX_POINT ( 'NONE', #219 ) ;
#98 = DIRECTION ( 'NONE',  ( -3.491481338843133355E-15, 1.224646799147353207E-16, -1.000000000000000000 ) ) ;
#99 = ADVANCED_FACE ( 'NONE', ( #86, #108 ), #128, .T. ) ;
#100 = EDGE_LOOP ( 'NONE', ( #64 ) ) ;
#101 = DATE_TIME_ROLE ( 'creation_date' ) ;
#102 = CALENDAR_DATE ( 2021, 13, 10 ) ;
#103 = ADVANCED_FACE ( 'NONE', ( #215 ), #137, .T. ) ;
#104 = AXIS2_PLACEMENT_3D ( 'NONE', #17, #89, #211 ) ;
#105 = ORIENTED_EDGE ( 'NONE', *, *, #228, .F. ) ;
#106 = APPROVAL_PERSON_ORGANIZATION ( #229, #37, #163 ) ;
#107 = PERSON_AND_ORGANIZATION ( #147, #179 ) ;
#108 = FACE_BOUND ( 'NONE', #113, .T. ) ;
#109 = CC_DESIGN_PERSON_AND_ORGANIZATION_ASSIGNMENT ( #107, #44, ( #60 ) ) ;
#110 = CARTESIAN_POINT ( 'NONE',  ( 8.554129280165677352E-14, -1.060157824722752006E-14, 24.50000000000000000 ) ) ;
#111 = CARTESIAN_POINT ( 'NONE',  ( 3.812385842504470444E-15, -1.337204947137066162E-16, 1.091910702798619459 ) ) ;
#112 = EDGE_CURVE ( 'NONE', #75, #75, #124, .T. ) ;
#113 = EDGE_LOOP ( 'NONE', ( #208 ) ) ;
#114 = AXIS2_PLACEMENT_3D ( 'NONE', #59, #203, #57 ) ;
#115 = DIRECTION ( 'NONE',  ( -3.491481338843133355E-15, 4.327174794786742882E-16, -1.000000000000000000 ) ) ;
#116 = DIRECTION ( 'NONE',  ( -3.950625526948167328E-31, -1.000000000000000000, -1.112002228190258486E-16 ) ) ;
#117 = EDGE_CURVE ( 'NONE', #248, #248, #161, .T. ) ;
#118 = VERTEX_POINT ( 'NONE', #243 ) ;
#119 = PRODUCT_DEFINITION_FORMATION_WITH_SPECIFIED_SOURCE ( 'ANY', '', #232, .NOT_KNOWN. ) ;
#120 =( LENGTH_UNIT ( ) NAMED_UNIT ( * ) SI_UNIT ( .MILLI., .METRE. ) );
#121 = VERTEX_POINT ( 'NONE', #221 ) ;
#122 = ADVANCED_FACE ( 'NONE', ( #245, #73 ), #21, .T. ) ;
#123 = PERSON_AND_ORGANIZATION ( #147, #179 ) ;
#124 = CIRCLE ( 'NONE', #25, 2.999999999999998224 ) ;
#125 = EDGE_LOOP ( 'NONE', ( #53 ) ) ;
#126 = COORDINATED_UNIVERSAL_TIME_OFFSET ( 1, 0, .AHEAD. ) ;
#127 = PERSON_AND_ORGANIZATION ( #147, #179 ) ;
#128 = CONICAL_SURFACE ( 'NONE', #41, 2.300000000000000711, 0.7853981633974437271 ) ;
#129 = FACE_OUTER_BOUND ( 'NONE', #242, .T. ) ;
#130 = CC_DESIGN_DATE_AND_TIME_ASSIGNMENT ( #187, #101, ( #194 ) ) ;
#131 = ORIENTED_EDGE ( 'NONE', *, *, #91, .F. ) ;
#132 = CARTESIAN_POINT ( 'NONE',  ( 5.935518276033326704E-14, 2.249639673992780117E-32, 17.00000000000000000 ) ) ;
#133 = LOCAL_TIME ( 13, 35, 58.00000000000000000, #126 ) ;
#134 = DIRECTION ( 'NONE',  ( -3.491481338843133355E-15, 4.327174794786742882E-16, -1.000000000000000000 ) ) ;
#135 = EDGE_LOOP ( 'NONE', ( #45 ) ) ;
#136 = CYLINDRICAL_SURFACE ( 'NONE', #36, 2.999999999999998224 ) ;
#137 = CONICAL_SURFACE ( 'NONE', #261, 2.999999999999993783, 1.221730476396026388 ) ;
#138 = APPLICATION_CONTEXT ( 'configuration controlled 3d designs of mechanical parts and assemblies' ) ;
#139 = DIRECTION ( 'NONE',  ( 0.0000000000000000000, -1.000000000000000000, 0.0000000000000000000 ) ) ;
#140 = CC_DESIGN_PERSON_AND_ORGANIZATION_ASSIGNMENT ( #30, #168, ( #119 ) ) ;
#141 = PLANE ( 'NONE',  #114 ) ;
#142 = CLOSED_SHELL ( 'NONE', ( #103, #122, #176 ) ) ;
#143 = DIRECTION ( 'NONE',  ( 1.510825004591028030E-30, 1.000000000000000000, 4.327174794786742882E-16 ) ) ;
#144 = CALENDAR_DATE ( 2021, 13, 10 ) ;
#145 = DESIGN_CONTEXT ( 'detailed design', #138, 'design' ) ;
#146 = CC_DESIGN_DATE_AND_TIME_ASSIGNMENT ( #167, #28, ( #60 ) ) ;
#147 = PERSON ( 'UNSPECIFIED', 'UNSPECIFIED', 'UNSPECIFIED', ('UNSPECIFIED'), ('UNSPECIFIED'), ('UNSPECIFIED') ) ;
#148 = PERSON_AND_ORGANIZATION ( #147, #179 ) ;
#149 = PERSON_AND_ORGANIZATION ( #147, #179 ) ;
#150 = MANIFOLD_SOLID_BREP ( 'Corps-Déplacer/Copier1[1]', #55 ) ;
#151 = APPROVAL_PERSON_ORGANIZATION ( #127, #79, #209 ) ;
#152 = DIRECTION ( 'NONE',  ( 0.0000000000000000000, 1.000000000000000000, 0.0000000000000000000 ) ) ;
#153 = EDGE_LOOP ( 'NONE', ( #105 ) ) ;
#154 = ORIENTED_EDGE ( 'NONE', *, *, #117, .T. ) ;
#155 = CARTESIAN_POINT ( 'NONE',  ( 2.279937314264566018E-13, 2.999999999999992895, 65.29999999999999716 ) ) ;
#156 = FACE_OUTER_BOUND ( 'NONE', #90, .T. ) ;
#157 = AXIS2_PLACEMENT_3D ( 'NONE', #94, #2, #116 ) ;
#158 = DIRECTION ( 'NONE',  ( -3.491481338843133355E-15, 4.327174794786742882E-16, -1.000000000000000000 ) ) ;
#159 = CARTESIAN_POINT ( 'NONE',  ( 5.935518276033326704E-14, -7.356197151137462899E-15, 17.00000000000000000 ) ) ;
#160 = PLANE ( 'NONE',  #235 ) ;
#161 = CIRCLE ( 'NONE', #58, 3.000000000000000444 ) ;
#162 = CC_DESIGN_SECURITY_CLASSIFICATION ( #60, ( #119 ) ) ;
#163 = APPROVAL_ROLE ( '' ) ;
#164 = PERSON_AND_ORGANIZATION_ROLE ( 'design_supplier' ) ;
#165 = DIRECTION ( 'NONE',  ( 1.000000000000000000, 0.0000000000000000000, 0.0000000000000000000 ) ) ;
#166 = AXIS2_PLACEMENT_3D ( 'NONE', #56, #74, #139 ) ;
#167 = DATE_AND_TIME ( #24, #262 ) ;
#168 = PERSON_AND_ORGANIZATION_ROLE ( 'creator' ) ;
#169 = EDGE_LOOP ( 'NONE', ( #131 ) ) ;
#170 = CIRCLE ( 'NONE', #157, 1.950000000000004396 ) ;
#171 = EDGE_LOOP ( 'NONE', ( #218 ) ) ;
#172 = PLANE ( 'NONE',  #231 ) ;
#173 = DIRECTION ( 'NONE',  ( -5.135813185032639159E-31, -1.000000000000000000, -1.445602896647342121E-16 ) ) ;
#174 = DIRECTION ( 'NONE',  ( -3.491481338843133355E-15, 1.224646799147353207E-16, -1.000000000000000000 ) ) ;
#175 = CARTESIAN_POINT ( 'NONE',  ( 0.0000000000000000000, 0.0000000000000000000, 0.0000000000000000000 ) ) ;
#176 = ADVANCED_FACE ( 'NONE', ( #156 ), #141, .T. ) ;
#177 = VERTEX_POINT ( 'NONE', #1 ) ;
#178 =( NAMED_UNIT ( * ) PLANE_ANGLE_UNIT ( ) SI_UNIT ( $, .RADIAN. ) );
#179 = ORGANIZATION ( 'UNSPECIFIED', 'UNSPECIFIED', '' ) ;
#180 = DIRECTION ( 'NONE',  ( 4.275831445896958607E-31, 1.000000000000000000, 1.224646799147353207E-16 ) ) ;
#181 = VERTEX_POINT ( 'NONE', #5 ) ;
#182 = PERSON_AND_ORGANIZATION_ROLE ( 'design_owner' ) ;
#183 = ORIENTED_EDGE ( 'NONE', *, *, #117, .F. ) ;
#184 = CC_DESIGN_PERSON_AND_ORGANIZATION_ASSIGNMENT ( #149, #182, ( #232 ) ) ;
#185 = APPROVAL_STATUS ( 'not_yet_approved' ) ;
#186 = MECHANICAL_CONTEXT ( 'NONE', #222, 'mechanical' ) ;
#187 = DATE_AND_TIME ( #102, #96 ) ;
#188 = EDGE_LOOP ( 'NONE', ( #88 ) ) ;
#189 = CC_DESIGN_PERSON_AND_ORGANIZATION_ASSIGNMENT ( #123, #80, ( #194 ) ) ;
#190 = APPLICATION_PROTOCOL_DEFINITION ( 'international standard', 'config_control_design', 1994, #222 ) ;
#191 = CARTESIAN_POINT ( 'NONE',  ( 2.304377683636468267E-13, -8.082668874372532400E-15, 66.00000000000000000 ) ) ;
#192 = DIRECTION ( 'NONE',  ( -3.491481338843133355E-15, 1.224646799147353207E-16, -1.000000000000000000 ) ) ;
#193 = CC_DESIGN_APPROVAL ( #79, ( #119 ) ) ;
#194 = PRODUCT_DEFINITION ( 'UNKNOWN', '', #119, #145 ) ;
#195 = DIRECTION ( 'NONE',  ( 3.491481338843133355E-15, -1.224646799147353207E-16, 1.000000000000000000 ) ) ;
#196 = CARTESIAN_POINT ( 'NONE',  ( 2.279937314264566018E-13, -7.996943598432214956E-15, 65.29999999999999716 ) ) ;
#197 = ORIENTED_EDGE ( 'NONE', *, *, #67, .F. ) ;
#198 = CIRCLE ( 'NONE', #15, 1.950000000000008171 ) ;
#199 = DIRECTION ( 'NONE',  ( 0.0000000000000000000, -1.000000000000000000, 0.0000000000000000000 ) ) ;
#200 = CARTESIAN_POINT ( 'NONE',  ( 5.935518276033326704E-14, -1.950000000000011946, 17.00000000000000000 ) ) ;
#201 = FACE_OUTER_BOUND ( 'NONE', #8, .T. ) ;
#202 = CONICAL_SURFACE ( 'NONE', #11, 3.500000000000010214, 0.5235987755982998149 ) ;
#203 = DIRECTION ( 'NONE',  ( 3.491481338843133355E-15, -1.224646799147353207E-16, 1.000000000000000000 ) ) ;
#204 = SHAPE_DEFINITION_REPRESENTATION ( #212, #63 ) ;
#205 = CC_DESIGN_PERSON_AND_ORGANIZATION_ASSIGNMENT ( #10, #164, ( #119 ) ) ;
#206 = TOROIDAL_SURFACE ( 'NONE', #104, 2.950000000000007283, 0.9999999999999983347 ) ;
#207 = CALENDAR_DATE ( 2021, 13, 10 ) ;
#208 = ORIENTED_EDGE ( 'NONE', *, *, #67, .T. ) ;
#209 = APPROVAL_ROLE ( '' ) ;
#210 = CALENDAR_DATE ( 2021, 13, 10 ) ;
#211 = DIRECTION ( 'NONE',  ( 1.510825004591027855E-30, 1.000000000000000000, 4.327174794786742882E-16 ) ) ;
#212 = PRODUCT_DEFINITION_SHAPE ( 'NONE', 'NONE',  #194 ) ;
#213 = EDGE_LOOP ( 'NONE', ( #50 ) ) ;
#214 = EDGE_CURVE ( 'NONE', #177, #177, #198, .T. ) ;
#215 = FACE_OUTER_BOUND ( 'NONE', #188, .T. ) ;
#216 = CC_DESIGN_APPROVAL ( #37, ( #60 ) ) ;
#217 = DIRECTION ( 'NONE',  ( 0.0000000000000000000, -1.000000000000000000, 0.0000000000000000000 ) ) ;
#218 = ORIENTED_EDGE ( 'NONE', *, *, #250, .T. ) ;
#219 = CARTESIAN_POINT ( 'NONE',  ( 5.935518276033326704E-14, -1.950000000000011946, 17.00000000000000000 ) ) ;
#220 =( GEOMETRIC_REPRESENTATION_CONTEXT ( 3 ) GLOBAL_UNCERTAINTY_ASSIGNED_CONTEXT ( ( #78 ) ) GLOBAL_UNIT_ASSIGNED_CONTEXT ( ( #120, #178, #42 ) ) REPRESENTATION_CONTEXT ( 'NONE', 'WORKASPACE' ) );
#221 = CARTESIAN_POINT ( 'NONE',  ( 2.304377683636468267E-13, 2.299999999999992717, 66.00000000000000000 ) ) ;
#222 = APPLICATION_CONTEXT ( 'configuration controlled 3d designs of mechanical parts and assemblies' ) ;
#223 = DIRECTION ( 'NONE',  ( -3.491481338843133355E-15, 1.224646799147353207E-16, -1.000000000000000000 ) ) ;
#224 = DIRECTION ( 'NONE',  ( -3.491481338843133355E-15, 1.224646799147353207E-16, -1.000000000000000000 ) ) ;
#225 = AXIS2_PLACEMENT_3D ( 'NONE', #110, #134, #152 ) ;
#226 = CARTESIAN_POINT ( 'NONE',  ( 0.0000000000000000000, 0.0000000000000000000, 0.0000000000000000000 ) ) ;
#227 = DATE_AND_TIME ( #144, #255 ) ;
#228 = EDGE_CURVE ( 'NONE', #118, #118, #170, .T. ) ;
#229 = PERSON_AND_ORGANIZATION ( #147, #179 ) ;
#230 = EDGE_LOOP ( 'NONE', ( #197 ) ) ;
#231 = AXIS2_PLACEMENT_3D ( 'NONE', #132, #52, #259 ) ;
#232 = PRODUCT ( '43318', '43318', '', ( #186 ) ) ;
#233 = APPROVAL_STATUS ( 'not_yet_approved' ) ;
#234 = DATE_AND_TIME ( #207, #133 ) ;
#235 = AXIS2_PLACEMENT_3D ( 'NONE', #39, #98, #180 ) ;
#236 = DIRECTION ( 'NONE',  ( 0.0000000000000000000, 1.000000000000000000, 0.0000000000000000000 ) ) ;
#237 = MANIFOLD_SOLID_BREP ( 'Corps-Déplacer/Copier1[2]', #142 ) ;
#238 = ORIENTED_EDGE ( 'NONE', *, *, #246, .F. ) ;
#239 = ADVANCED_FACE ( 'NONE', ( #93 ), #160, .F. ) ;
#240 = DIRECTION ( 'NONE',  ( 0.0000000000000000000, 1.000000000000000000, 0.0000000000000000000 ) ) ;
#241 = DIRECTION ( 'NONE',  ( 3.491481338843133355E-15, -4.327174794786742882E-16, 1.000000000000000000 ) ) ;
#242 = EDGE_LOOP ( 'NONE', ( #35 ) ) ;
#243 = CARTESIAN_POINT ( 'NONE',  ( 2.478050797627915334E-15, -1.950000000000004396, 0.7097419568191053463 ) ) ;
#244 = FACE_OUTER_BOUND ( 'NONE', #26, .T. ) ;
#245 = FACE_OUTER_BOUND ( 'NONE', #171, .T. ) ;
#246 = EDGE_CURVE ( 'NONE', #71, #71, #33, .T. ) ;
#247 = CARTESIAN_POINT ( 'NONE',  ( 9.108088596354914194E-14, -3.000000000000009770, 26.08660254037842208 ) ) ;
#248 = VERTEX_POINT ( 'NONE', #155 ) ;
#249 = CIRCLE ( 'NONE', #225, 2.083974596215570685 ) ;
#250 = EDGE_CURVE ( 'NONE', #97, #97, #76, .T. ) ;
#251 = APPROVAL_STATUS ( 'not_yet_approved' ) ;
#252 = APPROVAL_DATE_TIME ( #227, #37 ) ;
#253 = APPROVAL_DATE_TIME ( #9, #79 ) ;
#254 = APPROVAL_PERSON_ORGANIZATION ( #148, #40, #82 ) ;
#255 = LOCAL_TIME ( 13, 35, 58.00000000000000000, #61 ) ;
#256 = ADVANCED_FACE ( 'NONE', ( #244, #201 ), #136, .T. ) ;
#257 = COORDINATED_UNIVERSAL_TIME_OFFSET ( 1, 0, .AHEAD. ) ;
#258 = FACE_BOUND ( 'NONE', #169, .T. ) ;
#259 = DIRECTION ( 'NONE',  ( -4.275831445896958607E-31, -1.000000000000000000, -1.224646799147353207E-16 ) ) ;
#260 = CARTESIAN_POINT ( 'NONE',  ( 9.108088596354914194E-14, -1.128812889943453117E-14, 26.08660254037842208 ) ) ;
#261 = AXIS2_PLACEMENT_3D ( 'NONE', #111, #195, #173 ) ;
#262 = LOCAL_TIME ( 13, 35, 58.00000000000000000, #62 ) ;
#263 = FACE_OUTER_BOUND ( 'NONE', #12, .T. ) ;
ENDSEC;
END-ISO-10303-21;
