ISO-10303-21;
HEADER;
FILE_DESCRIPTION (( 'STEP AP203' ),
    '1' );
FILE_NAME ('43317.step',
    '2021-10-13T11:35:57',
    ( '' ),
    ( '' ),
    'SwSTEP 2.0',
    'SolidWorks 2019',
    '' );
FILE_SCHEMA (( 'CONFIG_CONTROL_DESIGN' ));
ENDSEC;

DATA;
#1 = FACE_OUTER_BOUND ( 'NONE', #168, .T. ) ;
#2 = TOROIDAL_SURFACE ( 'NONE', #93, 2.900000000000007461, 0.9999999999999985567 ) ;
#3 = CYLINDRICAL_SURFACE ( 'NONE', #246, 1.900000000000004574 ) ;
#4 = ORIENTED_EDGE ( 'NONE', *, *, #147, .F. ) ;
#5 = FACE_OUTER_BOUND ( 'NONE', #124, .T. ) ;
#6 = AXIS2_PLACEMENT_3D ( 'NONE', #91, #25, #24 ) ;
#7 = APPLICATION_CONTEXT ( 'configuration controlled 3d designs of mechanical parts and assemblies' ) ;
#8 = DIRECTION ( 'NONE',  ( -3.491481338843133355E-15, 4.327174794786742882E-16, -1.000000000000000000 ) ) ;
#9 = DIRECTION ( 'NONE',  ( -3.491481338843133355E-15, 1.224646799147353207E-16, -1.000000000000000000 ) ) ;
#10 = CARTESIAN_POINT ( 'NONE',  ( 2.414511033586174370E-15, -1.900000000000004574, 0.6915434451057951293 ) ) ;
#11 = CARTESIAN_POINT ( 'NONE',  ( 8.379555213223520053E-14, -1.038521950748818292E-14, 24.00000000000000000 ) ) ;
#12 = CIRCLE ( 'NONE', #99, 3.000000000000000444 ) ;
#13 = VERTEX_POINT ( 'NONE', #156 ) ;
#14 = PERSON_AND_ORGANIZATION ( #97, #140 ) ;
#15 = ADVANCED_FACE ( 'NONE', ( #88, #247 ), #152, .T. ) ;
#16 = CALENDAR_DATE ( 2021, 13, 10 ) ;
#17 = CALENDAR_DATE ( 2021, 13, 10 ) ;
#18 = PERSON_AND_ORGANIZATION ( #97, #140 ) ;
#19 = ORIENTED_EDGE ( 'NONE', *, *, #79, .T. ) ;
#20 = EDGE_LOOP ( 'NONE', ( #189 ) ) ;
#21 = CYLINDRICAL_SURFACE ( 'NONE', #121, 1.900000000000004574 ) ;
#22 = AXIS2_PLACEMENT_3D ( 'NONE', #218, #72, #255 ) ;
#23 = CARTESIAN_POINT ( 'NONE',  ( 5.935518276033326704E-14, -7.356197151137462899E-15, 17.00000000000000000 ) ) ;
#24 = DIRECTION ( 'NONE',  ( -4.275831445896958607E-31, -1.000000000000000000, -1.224646799147353207E-16 ) ) ;
#25 = DIRECTION ( 'NONE',  ( 3.491481338843133355E-15, -1.224646799147353207E-16, 1.000000000000000000 ) ) ;
#26 = UNCERTAINTY_MEASURE_WITH_UNIT (LENGTH_MEASURE( 1.000000000000000082E-05 ), #94, 'distance_accuracy_value', 'NONE');
#27 = AXIS2_PLACEMENT_3D ( 'NONE', #176, #191, #133 ) ;
#28 = FACE_OUTER_BOUND ( 'NONE', #60, .T. ) ;
#29 = PLANE ( 'NONE',  #180 ) ;
#30 = ADVANCED_FACE ( 'NONE', ( #174, #48 ), #21, .T. ) ;
#31 = DIRECTION ( 'NONE',  ( 0.0000000000000000000, -1.000000000000000000, 0.0000000000000000000 ) ) ;
#32 = VERTEX_POINT ( 'NONE', #10 ) ;
#33 = AXIS2_PLACEMENT_3D ( 'NONE', #85, #227, #44 ) ;
#34 = FACE_OUTER_BOUND ( 'NONE', #226, .T. ) ;
#35 = APPLICATION_CONTEXT ( 'configuration controlled 3d designs of mechanical parts and assemblies' ) ;
#36 = ADVANCED_FACE ( 'NONE', ( #5, #105 ), #250, .T. ) ;
#37 = PERSON_AND_ORGANIZATION ( #97, #140 ) ;
#38 = AXIS2_PLACEMENT_3D ( 'NONE', #221, #76, #50 ) ;
#39 = APPROVAL_ROLE ( '' ) ;
#40 = PERSON_AND_ORGANIZATION_ROLE ( 'creator' ) ;
#41 = PERSON_AND_ORGANIZATION_ROLE ( 'creator' ) ;
#42 = ORIENTED_EDGE ( 'NONE', *, *, #108, .T. ) ;
#43 = PRODUCT ( '43317', '43317', '', ( #164 ) ) ;
#44 = DIRECTION ( 'NONE',  ( 0.0000000000000000000, -1.000000000000000000, 0.0000000000000000000 ) ) ;
#45 = ADVANCED_FACE ( 'NONE', ( #126, #132 ), #3, .T. ) ;
#46 = FACE_OUTER_BOUND ( 'NONE', #224, .T. ) ;
#47 = CIRCLE ( 'NONE', #38, 2.033974596215570863 ) ;
#48 = FACE_OUTER_BOUND ( 'NONE', #228, .T. ) ;
#49 = ORIENTED_EDGE ( 'NONE', *, *, #167, .F. ) ;
#50 = DIRECTION ( 'NONE',  ( 0.0000000000000000000, 1.000000000000000000, 0.0000000000000000000 ) ) ;
#51 = VERTEX_POINT ( 'NONE', #96 ) ;
#52 = CARTESIAN_POINT ( 'NONE',  ( 3.812385842504470444E-15, -1.337204947137066162E-16, 1.091910702798619459 ) ) ;
#53 = FACE_OUTER_BOUND ( 'NONE', #155, .T. ) ;
#54 = APPROVAL_STATUS ( 'not_yet_approved' ) ;
#55 = CALENDAR_DATE ( 2021, 13, 10 ) ;
#56 = ORIENTED_EDGE ( 'NONE', *, *, #167, .T. ) ;
#57 = CC_DESIGN_APPROVAL ( #171, ( #209 ) ) ;
#58 = APPROVAL_STATUS ( 'not_yet_approved' ) ;
#59 = MANIFOLD_SOLID_BREP ( 'Corps-Déplacer/Copier1[2]', #256 ) ;
#60 = EDGE_LOOP ( 'NONE', ( #49 ) ) ;
#61 = AXIS2_PLACEMENT_3D ( 'NONE', #69, #114, #31 ) ;
#62 = CARTESIAN_POINT ( 'NONE',  ( 2.304377683636468267E-13, -8.082668874372532400E-15, 66.00000000000000000 ) ) ;
#63 = DIRECTION ( 'NONE',  ( 0.0000000000000000000, 1.000000000000000000, 0.0000000000000000000 ) ) ;
#64 = EDGE_LOOP ( 'NONE', ( #175 ) ) ;
#65 = ADVANCED_FACE ( 'NONE', ( #173, #46 ), #2, .F. ) ;
#66 = CONICAL_SURFACE ( 'NONE', #71, 2.999999999999993783, 1.221730476396026388 ) ;
#67 = ORIENTED_EDGE ( 'NONE', *, *, #158, .T. ) ;
#68 = DIRECTION ( 'NONE',  ( 0.0000000000000000000, -1.000000000000000000, 0.0000000000000000000 ) ) ;
#69 = CARTESIAN_POINT ( 'NONE',  ( 9.440696865345439670E-14, -1.170034766231365382E-14, 27.03923048454132072 ) ) ;
#70 = ADVANCED_BREP_SHAPE_REPRESENTATION ( '43317', ( #159, #59, #177 ), #107 ) ;
#71 = AXIS2_PLACEMENT_3D ( 'NONE', #52, #219, #74 ) ;
#72 = DIRECTION ( 'NONE',  ( -3.491481338843133355E-15, 1.224646799147353207E-16, -1.000000000000000000 ) ) ;
#73 = ADVANCED_FACE ( 'NONE', ( #1 ), #111, .F. ) ;
#74 = DIRECTION ( 'NONE',  ( -5.135813185032639159E-31, -1.000000000000000000, -1.445602896647342121E-16 ) ) ;
#75 = CARTESIAN_POINT ( 'NONE',  ( 2.304377683636468267E-13, 1.724723750061124754E-32, 66.00000000000000000 ) ) ;
#76 = DIRECTION ( 'NONE',  ( -3.491481338843133355E-15, 4.327174794786742882E-16, -1.000000000000000000 ) ) ;
#77 = CC_DESIGN_APPROVAL ( #80, ( #242 ) ) ;
#78 = COORDINATED_UNIVERSAL_TIME_OFFSET ( 1, 0, .AHEAD. ) ;
#79 = EDGE_CURVE ( 'NONE', #13, #13, #202, .T. ) ;
#80 = APPROVAL ( #54, 'UNSPECIFIED' ) ;
#81 = LOCAL_TIME ( 13, 35, 57.00000000000000000, #239 ) ;
#82 = ORIENTED_EDGE ( 'NONE', *, *, #128, .F. ) ;
#83 = DATE_TIME_ROLE ( 'creation_date' ) ;
#84 = ORIENTED_EDGE ( 'NONE', *, *, #214, .T. ) ;
#85 = CARTESIAN_POINT ( 'NONE',  ( 5.935518276033326704E-14, -7.356197151137462899E-15, 17.00000000000000000 ) ) ;
#86 = AXIS2_PLACEMENT_3D ( 'NONE', #253, #9, #196 ) ;
#87 = DIRECTION ( 'NONE',  ( 1.510825004591027679E-30, 1.000000000000000000, 4.327174794786742882E-16 ) ) ;
#88 = FACE_OUTER_BOUND ( 'NONE', #150, .T. ) ;
#89 = CC_DESIGN_PERSON_AND_ORGANIZATION_ASSIGNMENT ( #223, #148, ( #242 ) ) ;
#90 = AXIS2_PLACEMENT_3D ( 'NONE', #141, #117, #160 ) ;
#91 = CARTESIAN_POINT ( 'NONE',  ( 5.935518276033326704E-14, 2.249639673992780117E-32, 17.00000000000000000 ) ) ;
#92 = PLANE ( 'NONE',  #190 ) ;
#93 = AXIS2_PLACEMENT_3D ( 'NONE', #186, #8, #129 ) ;
#94 =( LENGTH_UNIT ( ) NAMED_UNIT ( * ) SI_UNIT ( .MILLI., .METRE. ) );
#95 =( NAMED_UNIT ( * ) SI_UNIT ( $, .STERADIAN. ) SOLID_ANGLE_UNIT ( ) );
#96 = CARTESIAN_POINT ( 'NONE',  ( 9.138325711717687975E-14, -3.000000000000009770, 26.17320508075686547 ) ) ;
#97 = PERSON ( 'UNSPECIFIED', 'UNSPECIFIED', 'UNSPECIFIED', ('UNSPECIFIED'), ('UNSPECIFIED'), ('UNSPECIFIED') ) ;
#98 = PERSON_AND_ORGANIZATION ( #97, #140 ) ;
#99 = AXIS2_PLACEMENT_3D ( 'NONE', #127, #248, #63 ) ;
#100 = CALENDAR_DATE ( 2021, 13, 10 ) ;
#101 = APPROVAL_ROLE ( '' ) ;
#102 = SHAPE_DEFINITION_REPRESENTATION ( #263, #70 ) ;
#103 = LOCAL_TIME ( 13, 35, 57.00000000000000000, #78 ) ;
#104 = COORDINATED_UNIVERSAL_TIME_OFFSET ( 1, 0, .AHEAD. ) ;
#105 = FACE_OUTER_BOUND ( 'NONE', #20, .T. ) ;
#106 = DIRECTION ( 'NONE',  ( -3.491481338843133355E-15, 4.327174794786742882E-16, -1.000000000000000000 ) ) ;
#107 =( GEOMETRIC_REPRESENTATION_CONTEXT ( 3 ) GLOBAL_UNCERTAINTY_ASSIGNED_CONTEXT ( ( #26 ) ) GLOBAL_UNIT_ASSIGNED_CONTEXT ( ( #94, #252, #95 ) ) REPRESENTATION_CONTEXT ( 'NONE', 'WORKASPACE' ) );
#108 = EDGE_CURVE ( 'NONE', #138, #138, #166, .T. ) ;
#109 = APPROVAL_PERSON_ORGANIZATION ( #123, #187, #206 ) ;
#110 = CARTESIAN_POINT ( 'NONE',  ( 0.0000000000000000000, 0.0000000000000000000, 0.0000000000000000000 ) ) ;
#111 = PLANE ( 'NONE',  #6 ) ;
#112 = APPROVAL_PERSON_ORGANIZATION ( #14, #80, #101 ) ;
#113 = DIRECTION ( 'NONE',  ( -3.491481338843133355E-15, 1.224646799147353207E-16, -1.000000000000000000 ) ) ;
#114 = DIRECTION ( 'NONE',  ( 3.491481338843133355E-15, -4.327174794786742882E-16, 1.000000000000000000 ) ) ;
#115 = CARTESIAN_POINT ( 'NONE',  ( 2.279937314264566018E-13, 2.999999999999992895, 65.29999999999999716 ) ) ;
#116 = LOCAL_TIME ( 13, 35, 57.00000000000000000, #182 ) ;
#117 = DIRECTION ( 'NONE',  ( 3.491481338843133355E-15, -4.327174794786742882E-16, 1.000000000000000000 ) ) ;
#118 = CARTESIAN_POINT ( 'NONE',  ( 5.935518276033326704E-14, 2.249639673992780117E-32, 17.00000000000000000 ) ) ;
#119 = PERSON_AND_ORGANIZATION ( #97, #140 ) ;
#120 = COORDINATED_UNIVERSAL_TIME_OFFSET ( 1, 0, .AHEAD. ) ;
#121 = AXIS2_PLACEMENT_3D ( 'NONE', #211, #106, #231 ) ;
#122 = CC_DESIGN_DATE_AND_TIME_ASSIGNMENT ( #222, #259, ( #229 ) ) ;
#123 = PERSON_AND_ORGANIZATION ( #97, #140 ) ;
#124 = EDGE_LOOP ( 'NONE', ( #67 ) ) ;
#125 = LOCAL_TIME ( 13, 35, 57.00000000000000000, #104 ) ;
#126 = FACE_OUTER_BOUND ( 'NONE', #153, .T. ) ;
#127 = CARTESIAN_POINT ( 'NONE',  ( 2.279937314264566018E-13, -7.996943598432214956E-15, 65.29999999999999716 ) ) ;
#128 = EDGE_CURVE ( 'NONE', #236, #236, #12, .T. ) ;
#129 = DIRECTION ( 'NONE',  ( 1.510825004591027679E-30, 1.000000000000000000, 4.327174794786742882E-16 ) ) ;
#130 = CIRCLE ( 'NONE', #90, 2.999999999999998224 ) ;
#131 = CC_DESIGN_PERSON_AND_ORGANIZATION_ASSIGNMENT ( #142, #240, ( #43 ) ) ;
#132 = FACE_OUTER_BOUND ( 'NONE', #64, .T. ) ;
#133 = DIRECTION ( 'NONE',  ( 4.275831445896958607E-31, 1.000000000000000000, 1.224646799147353454E-16 ) ) ;
#134 = DESIGN_CONTEXT ( 'detailed design', #35, 'design' ) ;
#135 = DIRECTION ( 'NONE',  ( 3.491481338843133355E-15, -1.224646799147353207E-16, 1.000000000000000000 ) ) ;
#136 = CONICAL_SURFACE ( 'NONE', #61, 3.500000000000010214, 0.5235987755983000369 ) ;
#137 = CARTESIAN_POINT ( 'NONE',  ( 2.304377683636468267E-13, 2.299999999999992717, 66.00000000000000000 ) ) ;
#138 = VERTEX_POINT ( 'NONE', #233 ) ;
#139 = CARTESIAN_POINT ( 'NONE',  ( 8.554129280165677352E-14, 2.033974596215560648, 24.50000000000000000 ) ) ;
#140 = ORGANIZATION ( 'UNSPECIFIED', 'UNSPECIFIED', '' ) ;
#141 = CARTESIAN_POINT ( 'NONE',  ( 9.138325711717687975E-14, -1.132560333242354347E-14, 26.17320508075686547 ) ) ;
#142 = PERSON_AND_ORGANIZATION ( #97, #140 ) ;
#143 = DATE_AND_TIME ( #243, #81 ) ;
#144 = PRODUCT_RELATED_PRODUCT_CATEGORY ( 'detail', '', ( #43 ) ) ;
#145 = APPLICATION_PROTOCOL_DEFINITION ( 'international standard', 'config_control_design', 1994, #35 ) ;
#146 = APPLICATION_PROTOCOL_DEFINITION ( 'international standard', 'config_control_design', 1994, #7 ) ;
#147 = EDGE_CURVE ( 'NONE', #254, #254, #47, .T. ) ;
#148 = PERSON_AND_ORGANIZATION_ROLE ( 'design_supplier' ) ;
#149 = ORIENTED_EDGE ( 'NONE', *, *, #108, .F. ) ;
#150 = EDGE_LOOP ( 'NONE', ( #82 ) ) ;
#151 = EDGE_LOOP ( 'NONE', ( #42 ) ) ;
#152 = CONICAL_SURFACE ( 'NONE', #207, 2.300000000000000711, 0.7853981633974437271 ) ;
#153 = EDGE_LOOP ( 'NONE', ( #170 ) ) ;
#154 = CC_DESIGN_PERSON_AND_ORGANIZATION_ASSIGNMENT ( #98, #40, ( #242 ) ) ;
#155 = EDGE_LOOP ( 'NONE', ( #84 ) ) ;
#156 = CARTESIAN_POINT ( 'NONE',  ( 5.935518276033326704E-14, -1.900000000000011902, 17.00000000000000000 ) ) ;
#157 = CIRCLE ( 'NONE', #210, 1.900000000000008127 ) ;
#158 = EDGE_CURVE ( 'NONE', #51, #51, #130, .T. ) ;
#159 = MANIFOLD_SOLID_BREP ( 'Corps-Déplacer/Copier1[1]', #178 ) ;
#160 = DIRECTION ( 'NONE',  ( 0.0000000000000000000, -1.000000000000000000, 0.0000000000000000000 ) ) ;
#161 = APPROVAL_PERSON_ORGANIZATION ( #18, #171, #39 ) ;
#162 = DIRECTION ( 'NONE',  ( 0.0000000000000000000, 1.000000000000000000, 0.0000000000000000000 ) ) ;
#163 = APPROVAL_DATE_TIME ( #257, #187 ) ;
#164 = MECHANICAL_CONTEXT ( 'NONE', #7, 'mechanical' ) ;
#165 = EDGE_LOOP ( 'NONE', ( #262 ) ) ;
#166 = CIRCLE ( 'NONE', #33, 1.900000000000004574 ) ;
#167 = EDGE_CURVE ( 'NONE', #197, #197, #237, .T. ) ;
#168 = EDGE_LOOP ( 'NONE', ( #19 ) ) ;
#169 = CC_DESIGN_PERSON_AND_ORGANIZATION_ASSIGNMENT ( #37, #181, ( #229 ) ) ;
#170 = ORIENTED_EDGE ( 'NONE', *, *, #188, .T. ) ;
#171 = APPROVAL ( #185, 'UNSPECIFIED' ) ;
#172 = CC_DESIGN_PERSON_AND_ORGANIZATION_ASSIGNMENT ( #119, #41, ( #209 ) ) ;
#173 = FACE_OUTER_BOUND ( 'NONE', #165, .T. ) ;
#174 = FACE_OUTER_BOUND ( 'NONE', #151, .T. ) ;
#175 = ORIENTED_EDGE ( 'NONE', *, *, #79, .F. ) ;
#176 = CARTESIAN_POINT ( 'NONE',  ( 0.0000000000000000000, 0.0000000000000000000, 0.0000000000000000000 ) ) ;
#177 = AXIS2_PLACEMENT_3D ( 'NONE', #261, #238, #204 ) ;
#178 = CLOSED_SHELL ( 'NONE', ( #36, #15, #203, #45, #258, #65, #73 ) ) ;
#179 = CARTESIAN_POINT ( 'NONE',  ( 8.379555213223520053E-14, 1.899999999999997691, 24.00000000000000000 ) ) ;
#180 = AXIS2_PLACEMENT_3D ( 'NONE', #75, #113, #234 ) ;
#181 = PERSON_AND_ORGANIZATION_ROLE ( 'classification_officer' ) ;
#182 = COORDINATED_UNIVERSAL_TIME_OFFSET ( 1, 0, .AHEAD. ) ;
#183 = AXIS2_PLACEMENT_3D ( 'NONE', #23, #215, #68 ) ;
#184 = DATE_AND_TIME ( #16, #125 ) ;
#185 = APPROVAL_STATUS ( 'not_yet_approved' ) ;
#186 = CARTESIAN_POINT ( 'NONE',  ( 8.379555213223520053E-14, -1.040834085586084257E-14, 24.00000000000000000 ) ) ;
#187 = APPROVAL ( #58, 'UNSPECIFIED' ) ;
#188 = EDGE_CURVE ( 'NONE', #217, #217, #157, .T. ) ;
#189 = ORIENTED_EDGE ( 'NONE', *, *, #128, .T. ) ;
#190 = AXIS2_PLACEMENT_3D ( 'NONE', #118, #135, #216 ) ;
#191 = DIRECTION ( 'NONE',  ( -3.491481338843133355E-15, 1.224646799147353207E-16, -1.000000000000000000 ) ) ;
#192 = DIRECTION ( 'NONE',  ( 0.0000000000000000000, 1.000000000000000000, 0.0000000000000000000 ) ) ;
#193 = ORIENTED_EDGE ( 'NONE', *, *, #147, .T. ) ;
#194 = CC_DESIGN_APPROVAL ( #187, ( #229 ) ) ;
#195 = DIRECTION ( 'NONE',  ( -3.491481338843133355E-15, 4.327174794786742882E-16, -1.000000000000000000 ) ) ;
#196 = DIRECTION ( 'NONE',  ( 0.0000000000000000000, 1.000000000000000000, 0.0000000000000000000 ) ) ;
#197 = VERTEX_POINT ( 'NONE', #137 ) ;
#198 = CC_DESIGN_SECURITY_CLASSIFICATION ( #229, ( #242 ) ) ;
#199 = FACE_OUTER_BOUND ( 'NONE', #205, .T. ) ;
#200 = ADVANCED_FACE ( 'NONE', ( #34 ), #92, .T. ) ;
#201 = DATE_AND_TIME ( #55, #103 ) ;
#202 = CIRCLE ( 'NONE', #183, 1.900000000000004574 ) ;
#203 = ADVANCED_FACE ( 'NONE', ( #28 ), #29, .F. ) ;
#204 = DIRECTION ( 'NONE',  ( 1.000000000000000000, 0.0000000000000000000, 0.0000000000000000000 ) ) ;
#205 = EDGE_LOOP ( 'NONE', ( #241 ) ) ;
#206 = APPROVAL_ROLE ( '' ) ;
#207 = AXIS2_PLACEMENT_3D ( 'NONE', #62, #230, #192 ) ;
#208 = ORIENTED_EDGE ( 'NONE', *, *, #214, .F. ) ;
#209 = PRODUCT_DEFINITION ( 'UNKNOWN', '', #242, #134 ) ;
#210 = AXIS2_PLACEMENT_3D ( 'NONE', #11, #195, #162 ) ;
#211 = CARTESIAN_POINT ( 'NONE',  ( 0.0000000000000000000, 0.0000000000000000000, 0.0000000000000000000 ) ) ;
#212 = LOCAL_TIME ( 13, 35, 57.00000000000000000, #120 ) ;
#213 = DIRECTION ( 'NONE',  ( -3.491481338843133355E-15, 4.327174794786742882E-16, -1.000000000000000000 ) ) ;
#214 = EDGE_CURVE ( 'NONE', #32, #32, #220, .T. ) ;
#215 = DIRECTION ( 'NONE',  ( -3.491481338843133355E-15, 1.224646799147353207E-16, -1.000000000000000000 ) ) ;
#216 = DIRECTION ( 'NONE',  ( -4.275831445896958607E-31, -1.000000000000000000, -1.224646799147353207E-16 ) ) ;
#217 = VERTEX_POINT ( 'NONE', #179 ) ;
#218 = CARTESIAN_POINT ( 'NONE',  ( 2.414511033586175159E-15, -8.468964665201455265E-17, 0.6915434451057953513 ) ) ;
#219 = DIRECTION ( 'NONE',  ( 3.491481338843133355E-15, -1.224646799147353207E-16, 1.000000000000000000 ) ) ;
#220 = CIRCLE ( 'NONE', #22, 1.900000000000004574 ) ;
#221 = CARTESIAN_POINT ( 'NONE',  ( 8.554129280165677352E-14, -1.060157824722752006E-14, 24.50000000000000000 ) ) ;
#222 = DATE_AND_TIME ( #100, #116 ) ;
#223 = PERSON_AND_ORGANIZATION ( #97, #140 ) ;
#224 = EDGE_LOOP ( 'NONE', ( #193 ) ) ;
#225 = APPROVAL_DATE_TIME ( #143, #80 ) ;
#226 = EDGE_LOOP ( 'NONE', ( #149 ) ) ;
#227 = DIRECTION ( 'NONE',  ( -3.491481338843133355E-15, 1.224646799147353207E-16, -1.000000000000000000 ) ) ;
#228 = EDGE_LOOP ( 'NONE', ( #208 ) ) ;
#229 = SECURITY_CLASSIFICATION ( '', '', #244 ) ;
#230 = DIRECTION ( 'NONE',  ( -3.491481338843133355E-15, 1.224646799147353207E-16, -1.000000000000000000 ) ) ;
#231 = DIRECTION ( 'NONE',  ( 1.510825004591027679E-30, 1.000000000000000000, 4.327174794786742882E-16 ) ) ;
#232 = EDGE_LOOP ( 'NONE', ( #56 ) ) ;
#233 = CARTESIAN_POINT ( 'NONE',  ( 5.935518276033326704E-14, -1.900000000000011902, 17.00000000000000000 ) ) ;
#234 = DIRECTION ( 'NONE',  ( 4.275831445896958607E-31, 1.000000000000000000, 1.224646799147353207E-16 ) ) ;
#235 = FACE_BOUND ( 'NONE', #249, .T. ) ;
#236 = VERTEX_POINT ( 'NONE', #115 ) ;
#237 = CIRCLE ( 'NONE', #86, 2.300000000000000711 ) ;
#238 = DIRECTION ( 'NONE',  ( 0.0000000000000000000, 0.0000000000000000000, 1.000000000000000000 ) ) ;
#239 = COORDINATED_UNIVERSAL_TIME_OFFSET ( 1, 0, .AHEAD. ) ;
#240 = PERSON_AND_ORGANIZATION_ROLE ( 'design_owner' ) ;
#241 = ORIENTED_EDGE ( 'NONE', *, *, #158, .F. ) ;
#242 = PRODUCT_DEFINITION_FORMATION_WITH_SPECIFIED_SOURCE ( 'ANY', '', #43, .NOT_KNOWN. ) ;
#243 = CALENDAR_DATE ( 2021, 13, 10 ) ;
#244 = SECURITY_CLASSIFICATION_LEVEL ( 'unclassified' ) ;
#245 = ADVANCED_FACE ( 'NONE', ( #53 ), #66, .T. ) ;
#246 = AXIS2_PLACEMENT_3D ( 'NONE', #110, #213, #87 ) ;
#247 = FACE_BOUND ( 'NONE', #232, .T. ) ;
#248 = DIRECTION ( 'NONE',  ( -3.491481338843133355E-15, 1.224646799147353207E-16, -1.000000000000000000 ) ) ;
#249 = EDGE_LOOP ( 'NONE', ( #4 ) ) ;
#250 = CYLINDRICAL_SURFACE ( 'NONE', #27, 2.999999999999998224 ) ;
#251 = CC_DESIGN_DATE_AND_TIME_ASSIGNMENT ( #201, #83, ( #209 ) ) ;
#252 =( NAMED_UNIT ( * ) PLANE_ANGLE_UNIT ( ) SI_UNIT ( $, .RADIAN. ) );
#253 = CARTESIAN_POINT ( 'NONE',  ( 2.304377683636468267E-13, -8.082668874372532400E-15, 66.00000000000000000 ) ) ;
#254 = VERTEX_POINT ( 'NONE', #139 ) ;
#255 = DIRECTION ( 'NONE',  ( -4.054589356604697056E-31, -1.000000000000000000, -1.141265444721580799E-16 ) ) ;
#256 = CLOSED_SHELL ( 'NONE', ( #245, #30, #200 ) ) ;
#257 = DATE_AND_TIME ( #17, #212 ) ;
#258 = ADVANCED_FACE ( 'NONE', ( #235, #199 ), #136, .T. ) ;
#259 = DATE_TIME_ROLE ( 'classification_date' ) ;
#260 = APPROVAL_DATE_TIME ( #184, #171 ) ;
#261 = CARTESIAN_POINT ( 'NONE',  ( 0.0000000000000000000, 0.0000000000000000000, 0.0000000000000000000 ) ) ;
#262 = ORIENTED_EDGE ( 'NONE', *, *, #188, .F. ) ;
#263 = PRODUCT_DEFINITION_SHAPE ( 'NONE', 'NONE',  #209 ) ;
ENDSEC;
END-ISO-10303-21;
