ISO-10303-21;
HEADER;
FILE_DESCRIPTION (( 'STEP AP203' ),
    '1' );
FILE_NAME ('43316.step',
    '2021-10-13T11:35:56',
    ( '' ),
    ( '' ),
    'SwSTEP 2.0',
    'SolidWorks 2019',
    '' );
FILE_SCHEMA (( 'CONFIG_CONTROL_DESIGN' ));
ENDSEC;

DATA;
#1 = SECURITY_CLASSIFICATION ( '', '', #124 ) ;
#2 = PERSON_AND_ORGANIZATION_ROLE ( 'classification_officer' ) ;
#3 = COORDINATED_UNIVERSAL_TIME_OFFSET ( 1, 0, .AHEAD. ) ;
#4 = AXIS2_PLACEMENT_3D ( 'NONE', #261, #34, #112 ) ;
#5 = DATE_AND_TIME ( #118, #161 ) ;
#6 = DIRECTION ( 'NONE',  ( 4.275831445896958607E-31, 1.000000000000000000, 1.224646799147353207E-16 ) ) ;
#7 = CC_DESIGN_DATE_AND_TIME_ASSIGNMENT ( #125, #64, ( #90 ) ) ;
#8 = AXIS2_PLACEMENT_3D ( 'NONE', #135, #212, #231 ) ;
#9 = DIRECTION ( 'NONE',  ( -4.275831445896958607E-31, -1.000000000000000000, -1.224646799147353207E-16 ) ) ;
#10 = FACE_BOUND ( 'NONE', #131, .T. ) ;
#11 = DIRECTION ( 'NONE',  ( 3.491481338843133355E-15, -4.327174794786742882E-16, 1.000000000000000000 ) ) ;
#12 = APPROVAL_PERSON_ORGANIZATION ( #146, #221, #100 ) ;
#13 = EDGE_LOOP ( 'NONE', ( #237 ) ) ;
#14 = AXIS2_PLACEMENT_3D ( 'NONE', #73, #89, #136 ) ;
#15 = DIRECTION ( 'NONE',  ( 0.0000000000000000000, 1.000000000000000000, 0.0000000000000000000 ) ) ;
#16 = DIRECTION ( 'NONE',  ( 1.510825004591027679E-30, 1.000000000000000000, 4.327174794786742389E-16 ) ) ;
#17 = ADVANCED_FACE ( 'NONE', ( #134 ), #106, .F. ) ;
#18 = VERTEX_POINT ( 'NONE', #160 ) ;
#19 = EDGE_CURVE ( 'NONE', #75, #75, #39, .T. ) ;
#20 = CIRCLE ( 'NONE', #54, 3.000000000000001332 ) ;
#21 = DIRECTION ( 'NONE',  ( 0.0000000000000000000, 0.0000000000000000000, 1.000000000000000000 ) ) ;
#22 = EDGE_LOOP ( 'NONE', ( #25 ) ) ;
#23 = SHAPE_DEFINITION_REPRESENTATION ( #87, #117 ) ;
#24 = PERSON_AND_ORGANIZATION ( #165, #79 ) ;
#25 = ORIENTED_EDGE ( 'NONE', *, *, #211, .T. ) ;
#26 = ADVANCED_FACE ( 'NONE', ( #250, #207 ), #256, .T. ) ;
#27 = FACE_OUTER_BOUND ( 'NONE', #22, .T. ) ;
#28 = EDGE_LOOP ( 'NONE', ( #170 ) ) ;
#29 = CC_DESIGN_SECURITY_CLASSIFICATION ( #1, ( #242 ) ) ;
#30 = ORIENTED_EDGE ( 'NONE', *, *, #232, .T. ) ;
#31 = DIRECTION ( 'NONE',  ( -4.164172852729149677E-31, -1.000000000000000000, -1.172110456741083363E-16 ) ) ;
#32 = ORIENTED_EDGE ( 'NONE', *, *, #107, .F. ) ;
#33 = LOCAL_TIME ( 13, 35, 56.00000000000000000, #62 ) ;
#34 = DIRECTION ( 'NONE',  ( 3.491481338843133355E-15, -1.224646799147353207E-16, 1.000000000000000000 ) ) ;
#35 = CARTESIAN_POINT ( 'NONE',  ( 2.164718430082742680E-13, 2.299999999999994049, 62.00000000000000000 ) ) ;
#36 = CARTESIAN_POINT ( 'NONE',  ( 2.140278060710840684E-13, 2.999999999999993783, 61.29999999999999716 ) ) ;
#37 = DIRECTION ( 'NONE',  ( 3.491481338843133355E-15, -4.327174794786742882E-16, 1.000000000000000000 ) ) ;
#38 = PERSON_AND_ORGANIZATION ( #165, #79 ) ;
#39 = CIRCLE ( 'NONE', #190, 2.999999999999998224 ) ;
#40 = AXIS2_PLACEMENT_3D ( 'NONE', #199, #180, #16 ) ;
#41 = CARTESIAN_POINT ( 'NONE',  ( 0.0000000000000000000, 0.0000000000000000000, 0.0000000000000000000 ) ) ;
#42 = PERSON_AND_ORGANIZATION_ROLE ( 'creator' ) ;
#43 = UNCERTAINTY_MEASURE_WITH_UNIT (LENGTH_MEASURE( 1.000000000000000082E-05 ), #217, 'distance_accuracy_value', 'NONE');
#44 = DATE_AND_TIME ( #227, #33 ) ;
#45 = CC_DESIGN_APPROVAL ( #221, ( #242 ) ) ;
#46 = ORIENTED_EDGE ( 'NONE', *, *, #167, .F. ) ;
#47 = DIRECTION ( 'NONE',  ( 1.510825004591027679E-30, 1.000000000000000000, 4.327174794786742882E-16 ) ) ;
#48 = ORIENTED_EDGE ( 'NONE', *, *, #232, .F. ) ;
#49 = ADVANCED_FACE ( 'NONE', ( #191, #27 ), #94, .T. ) ;
#50 = FACE_OUTER_BOUND ( 'NONE', #88, .T. ) ;
#51 = EDGE_LOOP ( 'NONE', ( #188 ) ) ;
#52 = ADVANCED_FACE ( 'NONE', ( #210 ), #149, .T. ) ;
#53 = DIRECTION ( 'NONE',  ( -3.491481338843133355E-15, 4.327174794786742882E-16, -1.000000000000000000 ) ) ;
#54 = AXIS2_PLACEMENT_3D ( 'NONE', #78, #198, #96 ) ;
#55 = DIRECTION ( 'NONE',  ( 1.510825004591027679E-30, 1.000000000000000000, 4.327174794786742882E-16 ) ) ;
#56 = CARTESIAN_POINT ( 'NONE',  ( 4.888073874380386697E-14, -1.850000000000010081, 14.00000000000000000 ) ) ;
#57 = LOCAL_TIME ( 13, 35, 56.00000000000000000, #169 ) ;
#58 = APPLICATION_CONTEXT ( 'configuration controlled 3d designs of mechanical parts and assemblies' ) ;
#59 = PERSON_AND_ORGANIZATION ( #165, #79 ) ;
#60 = AXIS2_PLACEMENT_3D ( 'NONE', #69, #68, #47 ) ;
#61 = EDGE_LOOP ( 'NONE', ( #32 ) ) ;
#62 = COORDINATED_UNIVERSAL_TIME_OFFSET ( 1, 0, .AHEAD. ) ;
#63 = ADVANCED_FACE ( 'NONE', ( #192 ), #176, .F. ) ;
#64 = DATE_TIME_ROLE ( 'creation_date' ) ;
#65 = APPROVAL_ROLE ( '' ) ;
#66 = CC_DESIGN_PERSON_AND_ORGANIZATION_ASSIGNMENT ( #202, #2, ( #1 ) ) ;
#67 = PRODUCT ( '43316', '43316', '', ( #226 ) ) ;
#68 = DIRECTION ( 'NONE',  ( -3.491481338843133355E-15, 4.327174794786742882E-16, -1.000000000000000000 ) ) ;
#69 = CARTESIAN_POINT ( 'NONE',  ( 0.0000000000000000000, 0.0000000000000000000, 0.0000000000000000000 ) ) ;
#70 = EDGE_CURVE ( 'NONE', #243, #243, #218, .T. ) ;
#71 = EDGE_LOOP ( 'NONE', ( #46 ) ) ;
#72 = AXIS2_PLACEMENT_3D ( 'NONE', #240, #195, #258 ) ;
#73 = CARTESIAN_POINT ( 'NONE',  ( 2.164718430082742680E-13, -7.592810154713590230E-15, 62.00000000000000000 ) ) ;
#74 = CARTESIAN_POINT ( 'NONE',  ( 4.888073874380386697E-14, -6.058044712701440824E-15, 14.00000000000000000 ) ) ;
#75 = VERTEX_POINT ( 'NONE', #162 ) ;
#76 = CARTESIAN_POINT ( 'NONE',  ( 2.350971269544432223E-15, -1.850000000000004086, 0.6733449333924844682 ) ) ;
#77 = VERTEX_POINT ( 'NONE', #56 ) ;
#78 = CARTESIAN_POINT ( 'NONE',  ( 2.140278060710840684E-13, -7.507084878773275941E-15, 61.29999999999999716 ) ) ;
#79 = ORGANIZATION ( 'UNSPECIFIED', 'UNSPECIFIED', '' ) ;
#80 = APPROVAL_STATUS ( 'not_yet_approved' ) ;
#81 = ORIENTED_EDGE ( 'NONE', *, *, #263, .T. ) ;
#82 = ADVANCED_FACE ( 'NONE', ( #193, #10 ), #158, .T. ) ;
#83 = PERSON_AND_ORGANIZATION_ROLE ( 'design_owner' ) ;
#84 = APPROVAL_DATE_TIME ( #5, #221 ) ;
#85 = AXIS2_PLACEMENT_3D ( 'NONE', #74, #173, #153 ) ;
#86 = APPROVAL_DATE_TIME ( #147, #143 ) ;
#87 = PRODUCT_DEFINITION_SHAPE ( 'NONE', 'NONE',  #90 ) ;
#88 = EDGE_LOOP ( 'NONE', ( #154 ) ) ;
#89 = DIRECTION ( 'NONE',  ( -3.491481338843133355E-15, 1.224646799147353207E-16, -1.000000000000000000 ) ) ;
#90 = PRODUCT_DEFINITION ( 'UNKNOWN', '', #242, #127 ) ;
#91 = DIRECTION ( 'NONE',  ( -3.491481338843133355E-15, 1.224646799147353207E-16, -1.000000000000000000 ) ) ;
#92 = DIRECTION ( 'NONE',  ( 4.275831445896958607E-31, 1.000000000000000000, 1.224646799147353454E-16 ) ) ;
#93 = APPROVAL_PERSON_ORGANIZATION ( #246, #187, #122 ) ;
#94 = CYLINDRICAL_SURFACE ( 'NONE', #251, 2.999999999999998224 ) ;
#95 = PRODUCT_RELATED_PRODUCT_CATEGORY ( 'detail', '', ( #67 ) ) ;
#96 = DIRECTION ( 'NONE',  ( 0.0000000000000000000, 1.000000000000000000, 0.0000000000000000000 ) ) ;
#97 = CARTESIAN_POINT ( 'NONE',  ( 0.0000000000000000000, 0.0000000000000000000, 0.0000000000000000000 ) ) ;
#98 = DIRECTION ( 'NONE',  ( 0.0000000000000000000, 1.000000000000000000, 0.0000000000000000000 ) ) ;
#99 = VERTEX_POINT ( 'NONE', #142 ) ;
#100 = APPROVAL_ROLE ( '' ) ;
#101 = CALENDAR_DATE ( 2021, 13, 10 ) ;
#102 = EDGE_LOOP ( 'NONE', ( #81 ) ) ;
#103 = PERSON_AND_ORGANIZATION ( #165, #79 ) ;
#104 = COORDINATED_UNIVERSAL_TIME_OFFSET ( 1, 0, .AHEAD. ) ;
#105 = EDGE_LOOP ( 'NONE', ( #126 ) ) ;
#106 = PLANE ( 'NONE',  #8 ) ;
#107 = EDGE_CURVE ( 'NONE', #77, #77, #175, .T. ) ;
#108 = CARTESIAN_POINT ( 'NONE',  ( 4.888073874380386697E-14, -6.058044712701440824E-15, 14.00000000000000000 ) ) ;
#109 = DIRECTION ( 'NONE',  ( 0.0000000000000000000, -1.000000000000000000, 0.0000000000000000000 ) ) ;
#110 = CARTESIAN_POINT ( 'NONE',  ( 2.350971269544433012E-15, -8.246097174011941403E-17, 0.6733449333924846902 ) ) ;
#111 = CARTESIAN_POINT ( 'NONE',  ( 0.0000000000000000000, 0.0000000000000000000, 0.0000000000000000000 ) ) ;
#112 = DIRECTION ( 'NONE',  ( -5.135813185032639159E-31, -1.000000000000000000, -1.445602896647342121E-16 ) ) ;
#113 = EDGE_CURVE ( 'NONE', #140, #140, #213, .T. ) ;
#114 = CIRCLE ( 'NONE', #72, 1.983974596215569486 ) ;
#115 = DIRECTION ( 'NONE',  ( -3.491481338843133355E-15, 1.224646799147353207E-16, -1.000000000000000000 ) ) ;
#116 = CONICAL_SURFACE ( 'NONE', #4, 2.999999999999993783, 1.221730476396026388 ) ;
#117 = ADVANCED_BREP_SHAPE_REPRESENTATION ( '43316', ( #234, #225, #141 ), #253 ) ;
#118 = CALENDAR_DATE ( 2021, 13, 10 ) ;
#119 = PERSON_AND_ORGANIZATION ( #165, #79 ) ;
#120 = CLOSED_SHELL ( 'NONE', ( #49, #82, #63, #130, #259, #241, #17 ) ) ;
#121 = CIRCLE ( 'NONE', #156, 1.850000000000006972 ) ;
#122 = APPROVAL_ROLE ( '' ) ;
#123 = EDGE_LOOP ( 'NONE', ( #48 ) ) ;
#124 = SECURITY_CLASSIFICATION_LEVEL ( 'unclassified' ) ;
#125 = DATE_AND_TIME ( #220, #57 ) ;
#126 = ORIENTED_EDGE ( 'NONE', *, *, #70, .T. ) ;
#127 = DESIGN_CONTEXT ( 'detailed design', #58, 'design' ) ;
#128 = CC_DESIGN_APPROVAL ( #187, ( #90 ) ) ;
#129 = AXIS2_PLACEMENT_3D ( 'NONE', #110, #208, #31 ) ;
#130 = ADVANCED_FACE ( 'NONE', ( #235, #50 ), #239, .T. ) ;
#131 = EDGE_LOOP ( 'NONE', ( #233 ) ) ;
#132 = CARTESIAN_POINT ( 'NONE',  ( 4.888073874380386697E-14, 2.249639673992780664E-32, 14.00000000000000000 ) ) ;
#133 = AXIS2_PLACEMENT_3D ( 'NONE', #138, #115, #15 ) ;
#134 = FACE_OUTER_BOUND ( 'NONE', #13, .T. ) ;
#135 = CARTESIAN_POINT ( 'NONE',  ( 4.888073874380386697E-14, 2.249639673992780664E-32, 14.00000000000000000 ) ) ;
#136 = DIRECTION ( 'NONE',  ( 0.0000000000000000000, 1.000000000000000000, 0.0000000000000000000 ) ) ;
#137 = CIRCLE ( 'NONE', #133, 2.300000000000001599 ) ;
#138 = CARTESIAN_POINT ( 'NONE',  ( 2.164718430082742680E-13, -7.592810154713590230E-15, 62.00000000000000000 ) ) ;
#139 = CC_DESIGN_PERSON_AND_ORGANIZATION_ASSIGNMENT ( #38, #42, ( #242 ) ) ;
#140 = VERTEX_POINT ( 'NONE', #157 ) ;
#141 = AXIS2_PLACEMENT_3D ( 'NONE', #41, #21, #145 ) ;
#142 = CARTESIAN_POINT ( 'NONE',  ( 7.157536744628424009E-14, 1.983974596215560826, 20.50000000000000000 ) ) ;
#143 = APPROVAL ( #248, 'UNSPECIFIED' ) ;
#144 = APPROVAL_DATE_TIME ( #201, #187 ) ;
#145 = DIRECTION ( 'NONE',  ( 1.000000000000000000, 0.0000000000000000000, 0.0000000000000000000 ) ) ;
#146 = PERSON_AND_ORGANIZATION ( #165, #79 ) ;
#147 = DATE_AND_TIME ( #203, #255 ) ;
#148 = CC_DESIGN_DATE_AND_TIME_ASSIGNMENT ( #44, #186, ( #1 ) ) ;
#149 = PLANE ( 'NONE',  #206 ) ;
#150 = EDGE_LOOP ( 'NONE', ( #209 ) ) ;
#151 = DIRECTION ( 'NONE',  ( -3.491481338843133355E-15, 1.224646799147353207E-16, -1.000000000000000000 ) ) ;
#152 = CONICAL_SURFACE ( 'NONE', #194, 3.500000000000008438, 0.5235987755983003700 ) ;
#153 = DIRECTION ( 'NONE',  ( 0.0000000000000000000, -1.000000000000000000, 0.0000000000000000000 ) ) ;
#154 = ORIENTED_EDGE ( 'NONE', *, *, #113, .F. ) ;
#155 = CARTESIAN_POINT ( 'NONE',  ( 6.982962677686266711E-14, -8.654349589573485764E-15, 20.00000000000000000 ) ) ;
#156 = AXIS2_PLACEMENT_3D ( 'NONE', #155, #197, #98 ) ;
#157 = CARTESIAN_POINT ( 'NONE',  ( 4.888073874380386697E-14, -1.850000000000010081, 14.00000000000000000 ) ) ;
#158 = CONICAL_SURFACE ( 'NONE', #14, 2.300000000000001599, 0.7853981633974485010 ) ;
#159 = CARTESIAN_POINT ( 'NONE',  ( 8.074341445170960109E-14, -1.000695217738796581E-14, 23.12583302491976411 ) ) ;
#160 = CARTESIAN_POINT ( 'NONE',  ( 6.982962677686266711E-14, 1.849999999999998312, 20.00000000000000000 ) ) ;
#161 = LOCAL_TIME ( 13, 35, 56.00000000000000000, #3 ) ;
#162 = CARTESIAN_POINT ( 'NONE',  ( 7.771970291543208414E-14, -3.000000000000007994, 22.25980762113530886 ) ) ;
#163 = EDGE_LOOP ( 'NONE', ( #166 ) ) ;
#164 = APPLICATION_PROTOCOL_DEFINITION ( 'international standard', 'config_control_design', 1994, #58 ) ;
#165 = PERSON ( 'UNSPECIFIED', 'UNSPECIFIED', 'UNSPECIFIED', ('UNSPECIFIED'), ('UNSPECIFIED'), ('UNSPECIFIED') ) ;
#166 = ORIENTED_EDGE ( 'NONE', *, *, #107, .T. ) ;
#167 = EDGE_CURVE ( 'NONE', #182, #182, #137, .T. ) ;
#168 = EDGE_LOOP ( 'NONE', ( #30 ) ) ;
#169 = COORDINATED_UNIVERSAL_TIME_OFFSET ( 1, 0, .AHEAD. ) ;
#170 = ORIENTED_EDGE ( 'NONE', *, *, #19, .F. ) ;
#171 = CARTESIAN_POINT ( 'NONE',  ( 2.164718430082742680E-13, 1.724723750061125849E-32, 62.00000000000000000 ) ) ;
#172 = DIRECTION ( 'NONE',  ( 0.0000000000000000000, -1.000000000000000000, 0.0000000000000000000 ) ) ;
#173 = DIRECTION ( 'NONE',  ( -3.491481338843133355E-15, 1.224646799147353207E-16, -1.000000000000000000 ) ) ;
#174 = LOCAL_TIME ( 13, 35, 56.00000000000000000, #104 ) ;
#175 = CIRCLE ( 'NONE', #229, 1.850000000000004086 ) ;
#176 = PLANE ( 'NONE',  #179 ) ;
#177 = CC_DESIGN_PERSON_AND_ORGANIZATION_ASSIGNMENT ( #119, #184, ( #242 ) ) ;
#178 = FACE_OUTER_BOUND ( 'NONE', #123, .T. ) ;
#179 = AXIS2_PLACEMENT_3D ( 'NONE', #171, #151, #6 ) ;
#180 = DIRECTION ( 'NONE',  ( -3.491481338843133355E-15, 4.327174794786742882E-16, -1.000000000000000000 ) ) ;
#181 = FACE_BOUND ( 'NONE', #150, .T. ) ;
#182 = VERTEX_POINT ( 'NONE', #35 ) ;
#183 = CC_DESIGN_PERSON_AND_ORGANIZATION_ASSIGNMENT ( #24, #228, ( #90 ) ) ;
#184 = PERSON_AND_ORGANIZATION_ROLE ( 'design_supplier' ) ;
#185 = ORIENTED_EDGE ( 'NONE', *, *, #211, .F. ) ;
#186 = DATE_TIME_ROLE ( 'classification_date' ) ;
#187 = APPROVAL ( #80, 'UNSPECIFIED' ) ;
#188 = ORIENTED_EDGE ( 'NONE', *, *, #19, .T. ) ;
#189 = DIRECTION ( 'NONE',  ( -3.491481338843133355E-15, 1.224646799147353207E-16, -1.000000000000000000 ) ) ;
#190 = AXIS2_PLACEMENT_3D ( 'NONE', #252, #11, #109 ) ;
#191 = FACE_OUTER_BOUND ( 'NONE', #51, .T. ) ;
#192 = FACE_OUTER_BOUND ( 'NONE', #71, .T. ) ;
#193 = FACE_OUTER_BOUND ( 'NONE', #245, .T. ) ;
#194 = AXIS2_PLACEMENT_3D ( 'NONE', #159, #37, #260 ) ;
#195 = DIRECTION ( 'NONE',  ( -3.491481338843133355E-15, 4.327174794786742882E-16, -1.000000000000000000 ) ) ;
#196 = ADVANCED_FACE ( 'NONE', ( #214 ), #116, .T. ) ;
#197 = DIRECTION ( 'NONE',  ( -3.491481338843133355E-15, 4.327174794786742882E-16, -1.000000000000000000 ) ) ;
#198 = DIRECTION ( 'NONE',  ( -3.491481338843133355E-15, 1.224646799147353207E-16, -1.000000000000000000 ) ) ;
#199 = CARTESIAN_POINT ( 'NONE',  ( 6.982962677686266711E-14, -8.673617379884035472E-15, 20.00000000000000000 ) ) ;
#200 =( NAMED_UNIT ( * ) PLANE_ANGLE_UNIT ( ) SI_UNIT ( $, .RADIAN. ) );
#201 = DATE_AND_TIME ( #101, #174 ) ;
#202 = PERSON_AND_ORGANIZATION ( #165, #79 ) ;
#203 = CALENDAR_DATE ( 2021, 13, 10 ) ;
#204 = APPROVAL_STATUS ( 'not_yet_approved' ) ;
#205 = EDGE_LOOP ( 'NONE', ( #224 ) ) ;
#206 = AXIS2_PLACEMENT_3D ( 'NONE', #132, #254, #9 ) ;
#207 = FACE_OUTER_BOUND ( 'NONE', #205, .T. ) ;
#208 = DIRECTION ( 'NONE',  ( -3.491481338843133355E-15, 1.224646799147353207E-16, -1.000000000000000000 ) ) ;
#209 = ORIENTED_EDGE ( 'NONE', *, *, #263, .F. ) ;
#210 = FACE_OUTER_BOUND ( 'NONE', #61, .T. ) ;
#211 = EDGE_CURVE ( 'NONE', #216, #216, #20, .T. ) ;
#212 = DIRECTION ( 'NONE',  ( 3.491481338843133355E-15, -1.224646799147353207E-16, 1.000000000000000000 ) ) ;
#213 = CIRCLE ( 'NONE', #85, 1.850000000000004086 ) ;
#214 = FACE_OUTER_BOUND ( 'NONE', #105, .T. ) ;
#215 = FACE_OUTER_BOUND ( 'NONE', #102, .T. ) ;
#216 = VERTEX_POINT ( 'NONE', #36 ) ;
#217 =( LENGTH_UNIT ( ) NAMED_UNIT ( * ) SI_UNIT ( .MILLI., .METRE. ) );
#218 = CIRCLE ( 'NONE', #129, 1.850000000000004086 ) ;
#219 = APPROVAL_PERSON_ORGANIZATION ( #103, #143, #65 ) ;
#220 = CALENDAR_DATE ( 2021, 13, 10 ) ;
#221 = APPROVAL ( #204, 'UNSPECIFIED' ) ;
#222 = COORDINATED_UNIVERSAL_TIME_OFFSET ( 1, 0, .AHEAD. ) ;
#223 = TOROIDAL_SURFACE ( 'NONE', #40, 2.850000000000007194, 0.9999999999999995559 ) ;
#224 = ORIENTED_EDGE ( 'NONE', *, *, #70, .F. ) ;
#225 = MANIFOLD_SOLID_BREP ( 'Corps-Déplacer/Copier1[2]', #238 ) ;
#226 = MECHANICAL_CONTEXT ( 'NONE', #247, 'mechanical' ) ;
#227 = CALENDAR_DATE ( 2021, 13, 10 ) ;
#228 = PERSON_AND_ORGANIZATION_ROLE ( 'creator' ) ;
#229 = AXIS2_PLACEMENT_3D ( 'NONE', #108, #91, #172 ) ;
#230 = CC_DESIGN_APPROVAL ( #143, ( #1 ) ) ;
#231 = DIRECTION ( 'NONE',  ( -4.275831445896958607E-31, -1.000000000000000000, -1.224646799147353207E-16 ) ) ;
#232 = EDGE_CURVE ( 'NONE', #18, #18, #121, .T. ) ;
#233 = ORIENTED_EDGE ( 'NONE', *, *, #167, .T. ) ;
#234 = MANIFOLD_SOLID_BREP ( 'Corps-Déplacer/Copier1[1]', #120 ) ;
#235 = FACE_OUTER_BOUND ( 'NONE', #168, .T. ) ;
#236 = CC_DESIGN_PERSON_AND_ORGANIZATION_ASSIGNMENT ( #59, #83, ( #67 ) ) ;
#237 = ORIENTED_EDGE ( 'NONE', *, *, #113, .T. ) ;
#238 = CLOSED_SHELL ( 'NONE', ( #196, #26, #52 ) ) ;
#239 = CYLINDRICAL_SURFACE ( 'NONE', #249, 1.850000000000004086 ) ;
#240 = CARTESIAN_POINT ( 'NONE',  ( 7.157536744628424009E-14, -8.870708329312824486E-15, 20.50000000000000000 ) ) ;
#241 = ADVANCED_FACE ( 'NONE', ( #178, #215 ), #223, .F. ) ;
#242 = PRODUCT_DEFINITION_FORMATION_WITH_SPECIFIED_SOURCE ( 'ANY', '', #67, .NOT_KNOWN. ) ;
#243 = VERTEX_POINT ( 'NONE', #76 ) ;
#244 = APPLICATION_PROTOCOL_DEFINITION ( 'international standard', 'config_control_design', 1994, #247 ) ;
#245 = EDGE_LOOP ( 'NONE', ( #185 ) ) ;
#246 = PERSON_AND_ORGANIZATION ( #165, #79 ) ;
#247 = APPLICATION_CONTEXT ( 'configuration controlled 3d designs of mechanical parts and assemblies' ) ;
#248 = APPROVAL_STATUS ( 'not_yet_approved' ) ;
#249 = AXIS2_PLACEMENT_3D ( 'NONE', #97, #53, #55 ) ;
#250 = FACE_OUTER_BOUND ( 'NONE', #163, .T. ) ;
#251 = AXIS2_PLACEMENT_3D ( 'NONE', #111, #189, #92 ) ;
#252 = CARTESIAN_POINT ( 'NONE',  ( 7.771970291543208414E-14, -9.632207847497855456E-15, 22.25980762113530886 ) ) ;
#253 =( GEOMETRIC_REPRESENTATION_CONTEXT ( 3 ) GLOBAL_UNCERTAINTY_ASSIGNED_CONTEXT ( ( #43 ) ) GLOBAL_UNIT_ASSIGNED_CONTEXT ( ( #217, #200, #262 ) ) REPRESENTATION_CONTEXT ( 'NONE', 'WORKASPACE' ) );
#254 = DIRECTION ( 'NONE',  ( 3.491481338843133355E-15, -1.224646799147353207E-16, 1.000000000000000000 ) ) ;
#255 = LOCAL_TIME ( 13, 35, 56.00000000000000000, #222 ) ;
#256 = CYLINDRICAL_SURFACE ( 'NONE', #60, 1.850000000000004086 ) ;
#257 = FACE_OUTER_BOUND ( 'NONE', #28, .T. ) ;
#258 = DIRECTION ( 'NONE',  ( 0.0000000000000000000, 1.000000000000000000, 0.0000000000000000000 ) ) ;
#259 = ADVANCED_FACE ( 'NONE', ( #181, #257 ), #152, .T. ) ;
#260 = DIRECTION ( 'NONE',  ( 0.0000000000000000000, -1.000000000000000000, 0.0000000000000000000 ) ) ;
#261 = CARTESIAN_POINT ( 'NONE',  ( 3.812385842504470444E-15, -1.337204947137066162E-16, 1.091910702798619459 ) ) ;
#262 =( NAMED_UNIT ( * ) SI_UNIT ( $, .STERADIAN. ) SOLID_ANGLE_UNIT ( ) );
#263 = EDGE_CURVE ( 'NONE', #99, #99, #114, .T. ) ;
ENDSEC;
END-ISO-10303-21;
