ISO-10303-21;
HEADER;
FILE_DESCRIPTION (( 'STEP AP203' ),
    '1' );
FILE_NAME ('43315.step',
    '2021-10-13T11:35:56',
    ( '' ),
    ( '' ),
    'SwSTEP 2.0',
    'SolidWorks 2019',
    '' );
FILE_SCHEMA (( 'CONFIG_CONTROL_DESIGN' ));
ENDSEC;

DATA;
#1 = ORIENTED_EDGE ( 'NONE', *, *, #229, .F. ) ;
#2 = SECURITY_CLASSIFICATION ( '', '', #171 ) ;
#3 = DIRECTION ( 'NONE',  ( -3.491481338843133355E-15, 4.327174794786742882E-16, -1.000000000000000000 ) ) ;
#4 = VERTEX_POINT ( 'NONE', #205 ) ;
#5 = ADVANCED_FACE ( 'NONE', ( #62 ), #242, .F. ) ;
#6 = ORIENTED_EDGE ( 'NONE', *, *, #208, .F. ) ;
#7 = APPROVAL_STATUS ( 'not_yet_approved' ) ;
#8 = CIRCLE ( 'NONE', #39, 2.300000000000001599 ) ;
#9 = DATE_AND_TIME ( #116, #253 ) ;
#10 = PERSON_AND_ORGANIZATION ( #234, #222 ) ;
#11 = EDGE_LOOP ( 'NONE', ( #65 ) ) ;
#12 = APPROVAL_ROLE ( '' ) ;
#13 = AXIS2_PLACEMENT_3D ( 'NONE', #61, #215, #162 ) ;
#14 = EDGE_CURVE ( 'NONE', #203, #203, #257, .T. ) ;
#15 = FACE_BOUND ( 'NONE', #199, .T. ) ;
#16 = FACE_OUTER_BOUND ( 'NONE', #102, .T. ) ;
#17 = CLOSED_SHELL ( 'NONE', ( #75, #259, #87, #18, #33, #42, #5 ) ) ;
#18 = ADVANCED_FACE ( 'NONE', ( #137, #107 ), #38, .T. ) ;
#19 = CARTESIAN_POINT ( 'NONE',  ( 0.0000000000000000000, 0.0000000000000000000, 0.0000000000000000000 ) ) ;
#20 = EDGE_LOOP ( 'NONE', ( #233 ) ) ;
#21 = ORIENTED_EDGE ( 'NONE', *, *, #96, .F. ) ;
#22 = EDGE_CURVE ( 'NONE', #183, #183, #164, .T. ) ;
#23 = APPLICATION_PROTOCOL_DEFINITION ( 'international standard', 'config_control_design', 1994, #69 ) ;
#24 = ADVANCED_FACE ( 'NONE', ( #85, #262 ), #217, .T. ) ;
#25 = VERTEX_POINT ( 'NONE', #243 ) ;
#26 = CARTESIAN_POINT ( 'NONE',  ( 2.164718430082742680E-13, 2.299999999999994049, 62.00000000000000000 ) ) ;
#27 = PERSON_AND_ORGANIZATION_ROLE ( 'design_supplier' ) ;
#28 = CLOSED_SHELL ( 'NONE', ( #189, #24, #255 ) ) ;
#29 = CC_DESIGN_SECURITY_CLASSIFICATION ( #2, ( #66 ) ) ;
#30 = CALENDAR_DATE ( 2021, 13, 10 ) ;
#31 = APPLICATION_PROTOCOL_DEFINITION ( 'international standard', 'config_control_design', 1994, #190 ) ;
#32 = DIRECTION ( 'NONE',  ( 0.0000000000000000000, 0.0000000000000000000, 1.000000000000000000 ) ) ;
#33 = ADVANCED_FACE ( 'NONE', ( #15, #122 ), #59, .T. ) ;
#34 = LOCAL_TIME ( 13, 35, 56.00000000000000000, #117 ) ;
#35 = DIRECTION ( 'NONE',  ( -3.491481338843133355E-15, 4.327174794786742882E-16, -1.000000000000000000 ) ) ;
#36 = DIRECTION ( 'NONE',  ( 4.275831445896958607E-31, 1.000000000000000000, 1.224646799147353454E-16 ) ) ;
#37 = PRODUCT_RELATED_PRODUCT_CATEGORY ( 'detail', '', ( #219 ) ) ;
#38 = CYLINDRICAL_SURFACE ( 'NONE', #241, 1.800000000000004041 ) ;
#39 = AXIS2_PLACEMENT_3D ( 'NONE', #248, #51, #92 ) ;
#40 = DIRECTION ( 'NONE',  ( -3.491481338843133355E-15, 1.224646799147353207E-16, -1.000000000000000000 ) ) ;
#41 = ORIENTED_EDGE ( 'NONE', *, *, #229, .T. ) ;
#42 = ADVANCED_FACE ( 'NONE', ( #197, #163 ), #236, .F. ) ;
#43 = DIRECTION ( 'NONE',  ( 3.491481338843133355E-15, -1.224646799147353207E-16, 1.000000000000000000 ) ) ;
#44 = AXIS2_PLACEMENT_3D ( 'NONE', #166, #48, #112 ) ;
#45 =( LENGTH_UNIT ( ) NAMED_UNIT ( * ) SI_UNIT ( .MILLI., .METRE. ) );
#46 = DIRECTION ( 'NONE',  ( -3.491481338843133355E-15, 4.327174794786742882E-16, -1.000000000000000000 ) ) ;
#47 = CC_DESIGN_PERSON_AND_ORGANIZATION_ASSIGNMENT ( #52, #135, ( #2 ) ) ;
#48 = DIRECTION ( 'NONE',  ( -3.491481338843133355E-15, 1.224646799147353207E-16, -1.000000000000000000 ) ) ;
#49 = EDGE_LOOP ( 'NONE', ( #139 ) ) ;
#50 = CIRCLE ( 'NONE', #111, 1.933974596215569886 ) ;
#51 = DIRECTION ( 'NONE',  ( -3.491481338843133355E-15, 1.224646799147353207E-16, -1.000000000000000000 ) ) ;
#52 = PERSON_AND_ORGANIZATION ( #234, #222 ) ;
#53 = SHAPE_DEFINITION_REPRESENTATION ( #245, #74 ) ;
#54 = CIRCLE ( 'NONE', #160, 1.800000000000004041 ) ;
#55 = ORIENTED_EDGE ( 'NONE', *, *, #232, .T. ) ;
#56 = COORDINATED_UNIVERSAL_TIME_OFFSET ( 1, 0, .AHEAD. ) ;
#57 = EDGE_LOOP ( 'NONE', ( #21 ) ) ;
#58 = MANIFOLD_SOLID_BREP ( 'Corps-Déplacer/Copier1[1]', #17 ) ;
#59 = CONICAL_SURFACE ( 'NONE', #204, 3.500000000000008438, 0.5235987755982999259 ) ;
#60 = DIRECTION ( 'NONE',  ( -3.491481338843133355E-15, 4.327174794786742882E-16, -1.000000000000000000 ) ) ;
#61 = CARTESIAN_POINT ( 'NONE',  ( 6.982962677686266711E-14, -8.673617379884035472E-15, 20.00000000000000000 ) ) ;
#62 = FACE_OUTER_BOUND ( 'NONE', #20, .T. ) ;
#63 = CARTESIAN_POINT ( 'NONE',  ( 2.164718430082742680E-13, 1.724723750061125849E-32, 62.00000000000000000 ) ) ;
#64 = AXIS2_PLACEMENT_3D ( 'NONE', #240, #263, #149 ) ;
#65 = ORIENTED_EDGE ( 'NONE', *, *, #208, .T. ) ;
#66 = PRODUCT_DEFINITION_FORMATION_WITH_SPECIFIED_SOURCE ( 'ANY', '', #219, .NOT_KNOWN. ) ;
#67 = CARTESIAN_POINT ( 'NONE',  ( 6.982962677686266711E-14, 1.799999999999998712, 20.00000000000000000 ) ) ;
#68 = AXIS2_PLACEMENT_3D ( 'NONE', #113, #93, #127 ) ;
#69 = APPLICATION_CONTEXT ( 'configuration controlled 3d designs of mechanical parts and assemblies' ) ;
#70 = VERTEX_POINT ( 'NONE', #26 ) ;
#71 = CARTESIAN_POINT ( 'NONE',  ( 2.140278060710840684E-13, 2.999999999999993783, 61.29999999999999716 ) ) ;
#72 = AXIS2_PLACEMENT_3D ( 'NONE', #126, #43, #124 ) ;
#73 = CALENDAR_DATE ( 2021, 13, 10 ) ;
#74 = ADVANCED_BREP_SHAPE_REPRESENTATION ( '43315', ( #58, #226, #81 ), #105 ) ;
#75 = ADVANCED_FACE ( 'NONE', ( #181, #109 ), #141, .T. ) ;
#76 = ORIENTED_EDGE ( 'NONE', *, *, #22, .F. ) ;
#77 = APPROVAL_PERSON_ORGANIZATION ( #252, #237, #99 ) ;
#78 = CARTESIAN_POINT ( 'NONE',  ( 0.0000000000000000000, 0.0000000000000000000, 0.0000000000000000000 ) ) ;
#79 = ORIENTED_EDGE ( 'NONE', *, *, #101, .T. ) ;
#80 = COORDINATED_UNIVERSAL_TIME_OFFSET ( 1, 0, .AHEAD. ) ;
#81 = AXIS2_PLACEMENT_3D ( 'NONE', #78, #32, #188 ) ;
#82 = DIRECTION ( 'NONE',  ( 0.0000000000000000000, -1.000000000000000000, 0.0000000000000000000 ) ) ;
#83 = CARTESIAN_POINT ( 'NONE',  ( 4.888073874380386697E-14, -6.058044712701440824E-15, 14.00000000000000000 ) ) ;
#84 = PLANE ( 'NONE',  #86 ) ;
#85 = FACE_OUTER_BOUND ( 'NONE', #238, .T. ) ;
#86 = AXIS2_PLACEMENT_3D ( 'NONE', #63, #106, #180 ) ;
#87 = ADVANCED_FACE ( 'NONE', ( #16 ), #84, .F. ) ;
#88 = DIRECTION ( 'NONE',  ( 3.491481338843133355E-15, -1.224646799147353207E-16, 1.000000000000000000 ) ) ;
#89 = CARTESIAN_POINT ( 'NONE',  ( 4.888073874380386697E-14, -1.800000000000010036, 14.00000000000000000 ) ) ;
#90 = DIRECTION ( 'NONE',  ( 0.0000000000000000000, 1.000000000000000000, 0.0000000000000000000 ) ) ;
#91 = CONICAL_SURFACE ( 'NONE', #44, 2.300000000000001599, 0.7853981633974485010 ) ;
#92 = DIRECTION ( 'NONE',  ( 0.0000000000000000000, 1.000000000000000000, 0.0000000000000000000 ) ) ;
#93 = DIRECTION ( 'NONE',  ( 3.491481338843133355E-15, -4.327174794786742882E-16, 1.000000000000000000 ) ) ;
#94 = UNCERTAINTY_MEASURE_WITH_UNIT (LENGTH_MEASURE( 1.000000000000000082E-05 ), #45, 'distance_accuracy_value', 'NONE');
#95 = DATE_AND_TIME ( #98, #216 ) ;
#96 = EDGE_CURVE ( 'NONE', #25, #25, #151, .T. ) ;
#97 = AXIS2_PLACEMENT_3D ( 'NONE', #169, #88, #227 ) ;
#98 = CALENDAR_DATE ( 2021, 13, 10 ) ;
#99 = APPROVAL_ROLE ( '' ) ;
#100 = PERSON_AND_ORGANIZATION ( #234, #222 ) ;
#101 = EDGE_CURVE ( 'NONE', #4, #4, #50, .T. ) ;
#102 = EDGE_LOOP ( 'NONE', ( #1 ) ) ;
#103 = PERSON_AND_ORGANIZATION ( #234, #222 ) ;
#104 = CARTESIAN_POINT ( 'NONE',  ( 8.104578560533735152E-14, -1.004442661037697653E-14, 23.21243556529820751 ) ) ;
#105 =( GEOMETRIC_REPRESENTATION_CONTEXT ( 3 ) GLOBAL_UNCERTAINTY_ASSIGNED_CONTEXT ( ( #94 ) ) GLOBAL_UNIT_ASSIGNED_CONTEXT ( ( #45, #201, #186 ) ) REPRESENTATION_CONTEXT ( 'NONE', 'WORKASPACE' ) );
#106 = DIRECTION ( 'NONE',  ( -3.491481338843133355E-15, 1.224646799147353207E-16, -1.000000000000000000 ) ) ;
#107 = FACE_OUTER_BOUND ( 'NONE', #121, .T. ) ;
#108 = CC_DESIGN_PERSON_AND_ORGANIZATION_ASSIGNMENT ( #100, #115, ( #66 ) ) ;
#109 = FACE_OUTER_BOUND ( 'NONE', #174, .T. ) ;
#110 = DIRECTION ( 'NONE',  ( 3.491481338843133355E-15, -1.224646799147353207E-16, 1.000000000000000000 ) ) ;
#111 = AXIS2_PLACEMENT_3D ( 'NONE', #247, #46, #90 ) ;
#112 = DIRECTION ( 'NONE',  ( 0.0000000000000000000, 1.000000000000000000, 0.0000000000000000000 ) ) ;
#113 = CARTESIAN_POINT ( 'NONE',  ( 7.802207406905983457E-14, -9.669682280486866176E-15, 22.34641016151375581 ) ) ;
#114 = DIRECTION ( 'NONE',  ( -3.491481338843133355E-15, 1.224646799147353207E-16, -1.000000000000000000 ) ) ;
#115 = PERSON_AND_ORGANIZATION_ROLE ( 'creator' ) ;
#116 = CALENDAR_DATE ( 2021, 13, 10 ) ;
#117 = COORDINATED_UNIVERSAL_TIME_OFFSET ( 1, 0, .AHEAD. ) ;
#118 = AXIS2_PLACEMENT_3D ( 'NONE', #225, #3, #146 ) ;
#119 = APPROVAL_DATE_TIME ( #9, #249 ) ;
#120 = CARTESIAN_POINT ( 'NONE',  ( 0.0000000000000000000, 0.0000000000000000000, 0.0000000000000000000 ) ) ;
#121 = EDGE_LOOP ( 'NONE', ( #76 ) ) ;
#122 = FACE_OUTER_BOUND ( 'NONE', #129, .T. ) ;
#123 = CARTESIAN_POINT ( 'NONE',  ( 2.140278060710840684E-13, -7.507084878773275941E-15, 61.29999999999999716 ) ) ;
#124 = DIRECTION ( 'NONE',  ( -4.275831445896958607E-31, -1.000000000000000000, -1.224646799147353207E-16 ) ) ;
#125 = AXIS2_PLACEMENT_3D ( 'NONE', #161, #35, #194 ) ;
#126 = CARTESIAN_POINT ( 'NONE',  ( 4.888073874380386697E-14, 2.249639673992780664E-32, 14.00000000000000000 ) ) ;
#127 = DIRECTION ( 'NONE',  ( 0.0000000000000000000, -1.000000000000000000, 0.0000000000000000000 ) ) ;
#128 = AXIS2_PLACEMENT_3D ( 'NONE', #123, #235, #142 ) ;
#129 = EDGE_LOOP ( 'NONE', ( #159 ) ) ;
#130 = PLANE ( 'NONE',  #72 ) ;
#131 = APPROVAL ( #212, 'UNSPECIFIED' ) ;
#132 = CC_DESIGN_APPROVAL ( #237, ( #184 ) ) ;
#133 = PERSON_AND_ORGANIZATION_ROLE ( 'design_owner' ) ;
#134 = ORIENTED_EDGE ( 'NONE', *, *, #14, .F. ) ;
#135 = PERSON_AND_ORGANIZATION_ROLE ( 'classification_officer' ) ;
#136 = COORDINATED_UNIVERSAL_TIME_OFFSET ( 1, 0, .AHEAD. ) ;
#137 = FACE_OUTER_BOUND ( 'NONE', #11, .T. ) ;
#138 = DIRECTION ( 'NONE',  ( -4.275831445896958607E-31, -1.000000000000000000, -1.224646799147353207E-16 ) ) ;
#139 = ORIENTED_EDGE ( 'NONE', *, *, #96, .T. ) ;
#140 = CC_DESIGN_PERSON_AND_ORGANIZATION_ASSIGNMENT ( #170, #172, ( #184 ) ) ;
#141 = CYLINDRICAL_SURFACE ( 'NONE', #213, 2.999999999999998224 ) ;
#142 = DIRECTION ( 'NONE',  ( 0.0000000000000000000, 1.000000000000000000, 0.0000000000000000000 ) ) ;
#143 = VERTEX_POINT ( 'NONE', #147 ) ;
#144 = CC_DESIGN_DATE_AND_TIME_ASSIGNMENT ( #191, #173, ( #184 ) ) ;
#145 = VERTEX_POINT ( 'NONE', #244 ) ;
#146 = DIRECTION ( 'NONE',  ( 0.0000000000000000000, 1.000000000000000000, 0.0000000000000000000 ) ) ;
#147 = CARTESIAN_POINT ( 'NONE',  ( 4.888073874380386697E-14, -1.800000000000010036, 14.00000000000000000 ) ) ;
#148 = EDGE_LOOP ( 'NONE', ( #41 ) ) ;
#149 = DIRECTION ( 'NONE',  ( -4.279844320860514387E-31, -1.000000000000000000, -1.204669080539446632E-16 ) ) ;
#150 = DESIGN_CONTEXT ( 'detailed design', #190, 'design' ) ;
#151 = CIRCLE ( 'NONE', #64, 1.800000000000004041 ) ;
#152 = APPROVAL_DATE_TIME ( #157, #131 ) ;
#153 = APPROVAL_DATE_TIME ( #95, #237 ) ;
#154 = DATE_AND_TIME ( #254, #218 ) ;
#155 = EDGE_LOOP ( 'NONE', ( #6 ) ) ;
#156 = EDGE_LOOP ( 'NONE', ( #195 ) ) ;
#157 = DATE_AND_TIME ( #73, #34 ) ;
#158 = CC_DESIGN_DATE_AND_TIME_ASSIGNMENT ( #154, #211, ( #2 ) ) ;
#159 = ORIENTED_EDGE ( 'NONE', *, *, #182, .F. ) ;
#160 = AXIS2_PLACEMENT_3D ( 'NONE', #221, #114, #246 ) ;
#161 = CARTESIAN_POINT ( 'NONE',  ( 0.0000000000000000000, 0.0000000000000000000, 0.0000000000000000000 ) ) ;
#162 = DIRECTION ( 'NONE',  ( 1.510825004591027855E-30, 1.000000000000000000, 4.327174794786742882E-16 ) ) ;
#163 = FACE_OUTER_BOUND ( 'NONE', #192, .T. ) ;
#164 = CIRCLE ( 'NONE', #175, 1.800000000000004041 ) ;
#165 = ORIENTED_EDGE ( 'NONE', *, *, #101, .F. ) ;
#166 = CARTESIAN_POINT ( 'NONE',  ( 2.164718430082742680E-13, -7.592810154713590230E-15, 62.00000000000000000 ) ) ;
#167 = CC_DESIGN_PERSON_AND_ORGANIZATION_ASSIGNMENT ( #209, #133, ( #219 ) ) ;
#168 = FACE_OUTER_BOUND ( 'NONE', #231, .T. ) ;
#169 = CARTESIAN_POINT ( 'NONE',  ( 3.812385842504470444E-15, -1.337204947137066162E-16, 1.091910702798619459 ) ) ;
#170 = PERSON_AND_ORGANIZATION ( #234, #222 ) ;
#171 = SECURITY_CLASSIFICATION_LEVEL ( 'unclassified' ) ;
#172 = PERSON_AND_ORGANIZATION_ROLE ( 'creator' ) ;
#173 = DATE_TIME_ROLE ( 'creation_date' ) ;
#174 = EDGE_LOOP ( 'NONE', ( #202 ) ) ;
#175 = AXIS2_PLACEMENT_3D ( 'NONE', #83, #40, #82 ) ;
#176 = APPROVAL_ROLE ( '' ) ;
#177 = DIRECTION ( 'NONE',  ( 3.491481338843133355E-15, -4.327174794786742882E-16, 1.000000000000000000 ) ) ;
#178 = CC_DESIGN_APPROVAL ( #249, ( #66 ) ) ;
#179 = AXIS2_PLACEMENT_3D ( 'NONE', #239, #110, #138 ) ;
#180 = DIRECTION ( 'NONE',  ( 4.275831445896958607E-31, 1.000000000000000000, 1.224646799147353207E-16 ) ) ;
#181 = FACE_OUTER_BOUND ( 'NONE', #156, .T. ) ;
#182 = EDGE_CURVE ( 'NONE', #145, #145, #193, .T. ) ;
#183 = VERTEX_POINT ( 'NONE', #89 ) ;
#184 = PRODUCT_DEFINITION ( 'UNKNOWN', '', #66, #150 ) ;
#185 = FACE_OUTER_BOUND ( 'NONE', #261, .T. ) ;
#186 =( NAMED_UNIT ( * ) SI_UNIT ( $, .STERADIAN. ) SOLID_ANGLE_UNIT ( ) );
#187 = VERTEX_POINT ( 'NONE', #67 ) ;
#188 = DIRECTION ( 'NONE',  ( 1.000000000000000000, 0.0000000000000000000, 0.0000000000000000000 ) ) ;
#189 = ADVANCED_FACE ( 'NONE', ( #223 ), #250, .T. ) ;
#190 = APPLICATION_CONTEXT ( 'configuration controlled 3d designs of mechanical parts and assemblies' ) ;
#191 = DATE_AND_TIME ( #30, #224 ) ;
#192 = EDGE_LOOP ( 'NONE', ( #79 ) ) ;
#193 = CIRCLE ( 'NONE', #68, 2.999999999999998224 ) ;
#194 = DIRECTION ( 'NONE',  ( 1.510825004591027855E-30, 1.000000000000000000, 4.327174794786742882E-16 ) ) ;
#195 = ORIENTED_EDGE ( 'NONE', *, *, #182, .T. ) ;
#196 = DIRECTION ( 'NONE',  ( 0.0000000000000000000, -1.000000000000000000, 0.0000000000000000000 ) ) ;
#197 = FACE_OUTER_BOUND ( 'NONE', #155, .T. ) ;
#198 = CC_DESIGN_PERSON_AND_ORGANIZATION_ASSIGNMENT ( #256, #27, ( #66 ) ) ;
#199 = EDGE_LOOP ( 'NONE', ( #165 ) ) ;
#200 = FACE_BOUND ( 'NONE', #148, .T. ) ;
#201 =( NAMED_UNIT ( * ) PLANE_ANGLE_UNIT ( ) SI_UNIT ( $, .RADIAN. ) );
#202 = ORIENTED_EDGE ( 'NONE', *, *, #14, .T. ) ;
#203 = VERTEX_POINT ( 'NONE', #71 ) ;
#204 = AXIS2_PLACEMENT_3D ( 'NONE', #104, #177, #196 ) ;
#205 = CARTESIAN_POINT ( 'NONE',  ( 7.157536744628424009E-14, 1.933974596215561004, 20.50000000000000000 ) ) ;
#206 = APPROVAL_PERSON_ORGANIZATION ( #10, #249, #12 ) ;
#207 = COORDINATED_UNIVERSAL_TIME_OFFSET ( 1, 0, .AHEAD. ) ;
#208 = EDGE_CURVE ( 'NONE', #187, #187, #210, .T. ) ;
#209 = PERSON_AND_ORGANIZATION ( #234, #222 ) ;
#210 = CIRCLE ( 'NONE', #118, 1.800000000000007372 ) ;
#211 = DATE_TIME_ROLE ( 'classification_date' ) ;
#212 = APPROVAL_STATUS ( 'not_yet_approved' ) ;
#213 = AXIS2_PLACEMENT_3D ( 'NONE', #19, #260, #36 ) ;
#214 = DIRECTION ( 'NONE',  ( 1.510825004591027855E-30, 1.000000000000000000, 4.327174794786742882E-16 ) ) ;
#215 = DIRECTION ( 'NONE',  ( -3.491481338843133355E-15, 4.327174794786742882E-16, -1.000000000000000000 ) ) ;
#216 = LOCAL_TIME ( 13, 35, 56.00000000000000000, #136 ) ;
#217 = CYLINDRICAL_SURFACE ( 'NONE', #125, 1.800000000000004041 ) ;
#218 = LOCAL_TIME ( 13, 35, 56.00000000000000000, #80 ) ;
#219 = PRODUCT ( '43315', '43315', '', ( #230 ) ) ;
#220 = ORIENTED_EDGE ( 'NONE', *, *, #232, .F. ) ;
#221 = CARTESIAN_POINT ( 'NONE',  ( 4.888073874380386697E-14, -6.058044712701440824E-15, 14.00000000000000000 ) ) ;
#222 = ORGANIZATION ( 'UNSPECIFIED', 'UNSPECIFIED', '' ) ;
#223 = FACE_OUTER_BOUND ( 'NONE', #49, .T. ) ;
#224 = LOCAL_TIME ( 13, 35, 56.00000000000000000, #207 ) ;
#225 = CARTESIAN_POINT ( 'NONE',  ( 6.982962677686266711E-14, -8.654349589573485764E-15, 20.00000000000000000 ) ) ;
#226 = MANIFOLD_SOLID_BREP ( 'Corps-Déplacer/Copier1[2]', #28 ) ;
#227 = DIRECTION ( 'NONE',  ( -5.135813185032639159E-31, -1.000000000000000000, -1.445602896647342121E-16 ) ) ;
#228 = CC_DESIGN_APPROVAL ( #131, ( #2 ) ) ;
#229 = EDGE_CURVE ( 'NONE', #70, #70, #8, .T. ) ;
#230 = MECHANICAL_CONTEXT ( 'NONE', #69, 'mechanical' ) ;
#231 = EDGE_LOOP ( 'NONE', ( #220 ) ) ;
#232 = EDGE_CURVE ( 'NONE', #143, #143, #54, .T. ) ;
#233 = ORIENTED_EDGE ( 'NONE', *, *, #22, .T. ) ;
#234 = PERSON ( 'UNSPECIFIED', 'UNSPECIFIED', 'UNSPECIFIED', ('UNSPECIFIED'), ('UNSPECIFIED'), ('UNSPECIFIED') ) ;
#235 = DIRECTION ( 'NONE',  ( -3.491481338843133355E-15, 1.224646799147353207E-16, -1.000000000000000000 ) ) ;
#236 = TOROIDAL_SURFACE ( 'NONE', #13, 2.800000000000007372, 0.9999999999999993339 ) ;
#237 = APPROVAL ( #251, 'UNSPECIFIED' ) ;
#238 = EDGE_LOOP ( 'NONE', ( #55 ) ) ;
#239 = CARTESIAN_POINT ( 'NONE',  ( 4.888073874380386697E-14, 2.249639673992780664E-32, 14.00000000000000000 ) ) ;
#240 = CARTESIAN_POINT ( 'NONE',  ( 2.287431505502691259E-15, -8.023229682822430007E-17, 0.6551464216791743622 ) ) ;
#241 = AXIS2_PLACEMENT_3D ( 'NONE', #120, #60, #214 ) ;
#242 = PLANE ( 'NONE',  #179 ) ;
#243 = CARTESIAN_POINT ( 'NONE',  ( 2.287431505502690470E-15, -1.800000000000004041, 0.6551464216791741402 ) ) ;
#244 = CARTESIAN_POINT ( 'NONE',  ( 7.802207406905983457E-14, -3.000000000000007994, 22.34641016151375581 ) ) ;
#245 = PRODUCT_DEFINITION_SHAPE ( 'NONE', 'NONE',  #184 ) ;
#246 = DIRECTION ( 'NONE',  ( 0.0000000000000000000, -1.000000000000000000, 0.0000000000000000000 ) ) ;
#247 = CARTESIAN_POINT ( 'NONE',  ( 7.157536744628424009E-14, -8.870708329312824486E-15, 20.50000000000000000 ) ) ;
#248 = CARTESIAN_POINT ( 'NONE',  ( 2.164718430082742680E-13, -7.592810154713590230E-15, 62.00000000000000000 ) ) ;
#249 = APPROVAL ( #7, 'UNSPECIFIED' ) ;
#250 = CONICAL_SURFACE ( 'NONE', #97, 2.999999999999993783, 1.221730476396026388 ) ;
#251 = APPROVAL_STATUS ( 'not_yet_approved' ) ;
#252 = PERSON_AND_ORGANIZATION ( #234, #222 ) ;
#253 = LOCAL_TIME ( 13, 35, 56.00000000000000000, #56 ) ;
#254 = CALENDAR_DATE ( 2021, 13, 10 ) ;
#255 = ADVANCED_FACE ( 'NONE', ( #168 ), #130, .T. ) ;
#256 = PERSON_AND_ORGANIZATION ( #234, #222 ) ;
#257 = CIRCLE ( 'NONE', #128, 3.000000000000001332 ) ;
#258 = APPROVAL_PERSON_ORGANIZATION ( #103, #131, #176 ) ;
#259 = ADVANCED_FACE ( 'NONE', ( #185, #200 ), #91, .T. ) ;
#260 = DIRECTION ( 'NONE',  ( -3.491481338843133355E-15, 1.224646799147353207E-16, -1.000000000000000000 ) ) ;
#261 = EDGE_LOOP ( 'NONE', ( #134 ) ) ;
#262 = FACE_OUTER_BOUND ( 'NONE', #57, .T. ) ;
#263 = DIRECTION ( 'NONE',  ( -3.491481338843133355E-15, 1.224646799147353207E-16, -1.000000000000000000 ) ) ;
ENDSEC;
END-ISO-10303-21;
