ISO-10303-21;
HEADER;
FILE_DESCRIPTION (( 'STEP AP203' ),
    '1' );
FILE_NAME ('43314.step',
    '2021-10-13T11:35:55',
    ( '' ),
    ( '' ),
    'SwSTEP 2.0',
    'SolidWorks 2019',
    '' );
FILE_SCHEMA (( 'CONFIG_CONTROL_DESIGN' ));
ENDSEC;

DATA;
#1 = AXIS2_PLACEMENT_3D ( 'NONE', #4, #49, #89 ) ;
#2 = FACE_OUTER_BOUND ( 'NONE', #223, .T. ) ;
#3 = CARTESIAN_POINT ( 'NONE',  ( 7.157536744628424009E-14, 1.883974596215560293, 20.50000000000000000 ) ) ;
#4 = CARTESIAN_POINT ( 'NONE',  ( 0.0000000000000000000, 0.0000000000000000000, 0.0000000000000000000 ) ) ;
#5 = ORIENTED_EDGE ( 'NONE', *, *, #96, .F. ) ;
#6 = DIRECTION ( 'NONE',  ( -3.491481338843133355E-15, 1.224646799147353207E-16, -1.000000000000000000 ) ) ;
#7 = CARTESIAN_POINT ( 'NONE',  ( 6.982962677686266711E-14, -8.654349589573485764E-15, 20.00000000000000000 ) ) ;
#8 = ADVANCED_FACE ( 'NONE', ( #117, #200 ), #158, .T. ) ;
#9 = AXIS2_PLACEMENT_3D ( 'NONE', #42, #142, #230 ) ;
#10 = LOCAL_TIME ( 13, 35, 55.00000000000000000, #55 ) ;
#11 = CALENDAR_DATE ( 2021, 13, 10 ) ;
#12 = DATE_TIME_ROLE ( 'classification_date' ) ;
#13 = AXIS2_PLACEMENT_3D ( 'NONE', #229, #100, #21 ) ;
#14 = ORIENTED_EDGE ( 'NONE', *, *, #259, .T. ) ;
#15 = APPROVAL_ROLE ( '' ) ;
#16 = DIRECTION ( 'NONE',  ( -3.491481338843133355E-15, 4.327174794786742882E-16, -1.000000000000000000 ) ) ;
#17 = DIRECTION ( 'NONE',  ( 3.491481338843133355E-15, -1.224646799147353207E-16, 1.000000000000000000 ) ) ;
#18 = PRODUCT_RELATED_PRODUCT_CATEGORY ( 'detail', '', ( #190 ) ) ;
#19 = CARTESIAN_POINT ( 'NONE',  ( 2.140278060710840684E-13, -7.507084878773275941E-15, 61.29999999999999716 ) ) ;
#20 = LOCAL_TIME ( 13, 35, 55.00000000000000000, #115 ) ;
#21 = DIRECTION ( 'NONE',  ( 0.0000000000000000000, -1.000000000000000000, 0.0000000000000000000 ) ) ;
#22 = AXIS2_PLACEMENT_3D ( 'NONE', #7, #16, #91 ) ;
#23 = DIRECTION ( 'NONE',  ( -3.491481338843133355E-15, 4.327174794786742882E-16, -1.000000000000000000 ) ) ;
#24 = FACE_OUTER_BOUND ( 'NONE', #236, .T. ) ;
#25 = CC_DESIGN_PERSON_AND_ORGANIZATION_ASSIGNMENT ( #213, #171, ( #190 ) ) ;
#26 = VERTEX_POINT ( 'NONE', #108 ) ;
#27 = CARTESIAN_POINT ( 'NONE',  ( 6.982962677686266711E-14, 1.749999999999998224, 20.00000000000000000 ) ) ;
#28 = AXIS2_PLACEMENT_3D ( 'NONE', #97, #206, #82 ) ;
#29 = EDGE_LOOP ( 'NONE', ( #50 ) ) ;
#30 = PERSON_AND_ORGANIZATION_ROLE ( 'creator' ) ;
#31 = PERSON_AND_ORGANIZATION ( #84, #192 ) ;
#32 = CIRCLE ( 'NONE', #186, 2.999999999999998224 ) ;
#33 = LOCAL_TIME ( 13, 35, 55.00000000000000000, #112 ) ;
#34 = DATE_AND_TIME ( #113, #20 ) ;
#35 = ORIENTED_EDGE ( 'NONE', *, *, #179, .T. ) ;
#36 = PERSON_AND_ORGANIZATION_ROLE ( 'design_supplier' ) ;
#37 = ORIENTED_EDGE ( 'NONE', *, *, #231, .T. ) ;
#38 = CALENDAR_DATE ( 2021, 13, 10 ) ;
#39 = PRODUCT_DEFINITION_FORMATION_WITH_SPECIFIED_SOURCE ( 'ANY', '', #190, .NOT_KNOWN. ) ;
#40 = AXIS2_PLACEMENT_3D ( 'NONE', #46, #17, #180 ) ;
#41 = EDGE_CURVE ( 'NONE', #106, #106, #125, .T. ) ;
#42 = CARTESIAN_POINT ( 'NONE',  ( 7.157536744628424009E-14, -8.870708329312824486E-15, 20.50000000000000000 ) ) ;
#43 = FACE_OUTER_BOUND ( 'NONE', #198, .T. ) ;
#44 = CYLINDRICAL_SURFACE ( 'NONE', #107, 2.999999999999998224 ) ;
#45 = CARTESIAN_POINT ( 'NONE',  ( 0.0000000000000000000, 0.0000000000000000000, 0.0000000000000000000 ) ) ;
#46 = CARTESIAN_POINT ( 'NONE',  ( 4.888073874380386697E-14, 2.249639673992780664E-32, 14.00000000000000000 ) ) ;
#47 = DATE_AND_TIME ( #137, #33 ) ;
#48 = ADVANCED_FACE ( 'NONE', ( #254 ), #76, .F. ) ;
#49 = DIRECTION ( 'NONE',  ( 0.0000000000000000000, 0.0000000000000000000, 1.000000000000000000 ) ) ;
#50 = ORIENTED_EDGE ( 'NONE', *, *, #263, .T. ) ;
#51 = ORIENTED_EDGE ( 'NONE', *, *, #73, .T. ) ;
#52 = APPROVAL_ROLE ( '' ) ;
#53 = PERSON_AND_ORGANIZATION ( #84, #192 ) ;
#54 = EDGE_LOOP ( 'NONE', ( #111 ) ) ;
#55 = COORDINATED_UNIVERSAL_TIME_OFFSET ( 1, 0, .AHEAD. ) ;
#56 = CIRCLE ( 'NONE', #13, 1.750000000000003775 ) ;
#57 = MANIFOLD_SOLID_BREP ( 'Corps-Déplacer/Copier1[2]', #64 ) ;
#58 = ADVANCED_FACE ( 'NONE', ( #24, #2 ), #121, .T. ) ;
#59 = DIRECTION ( 'NONE',  ( 0.0000000000000000000, -1.000000000000000000, 0.0000000000000000000 ) ) ;
#60 = DIRECTION ( 'NONE',  ( -3.491481338843133355E-15, 1.224646799147353207E-16, -1.000000000000000000 ) ) ;
#61 = DIRECTION ( 'NONE',  ( 3.491481338843133355E-15, -4.327174794786742882E-16, 1.000000000000000000 ) ) ;
#62 = CARTESIAN_POINT ( 'NONE',  ( 0.0000000000000000000, 0.0000000000000000000, 0.0000000000000000000 ) ) ;
#63 = DIRECTION ( 'NONE',  ( -3.491481338843133355E-15, 4.327174794786742882E-16, -1.000000000000000000 ) ) ;
#64 = CLOSED_SHELL ( 'NONE', ( #114, #164, #224 ) ) ;
#65 = CIRCLE ( 'NONE', #216, 1.750000000000003775 ) ;
#66 = CC_DESIGN_PERSON_AND_ORGANIZATION_ASSIGNMENT ( #31, #36, ( #39 ) ) ;
#67 = PERSON_AND_ORGANIZATION ( #84, #192 ) ;
#68 = SECURITY_CLASSIFICATION ( '', '', #177 ) ;
#69 = MECHANICAL_CONTEXT ( 'NONE', #123, 'mechanical' ) ;
#70 = APPROVAL ( #217, 'UNSPECIFIED' ) ;
#71 = ORIENTED_EDGE ( 'NONE', *, *, #197, .T. ) ;
#72 = CARTESIAN_POINT ( 'NONE',  ( 4.888073874380386697E-14, -1.750000000000009770, 14.00000000000000000 ) ) ;
#73 = EDGE_CURVE ( 'NONE', #26, #26, #56, .T. ) ;
#74 = CC_DESIGN_SECURITY_CLASSIFICATION ( #68, ( #39 ) ) ;
#75 = SHAPE_DEFINITION_REPRESENTATION ( #151, #205 ) ;
#76 = PLANE ( 'NONE',  #28 ) ;
#77 = CC_DESIGN_PERSON_AND_ORGANIZATION_ASSIGNMENT ( #247, #30, ( #188 ) ) ;
#78 = EDGE_LOOP ( 'NONE', ( #51 ) ) ;
#79 = DIRECTION ( 'NONE',  ( -3.491481338843133355E-15, 1.224646799147353207E-16, -1.000000000000000000 ) ) ;
#80 = DIRECTION ( 'NONE',  ( 3.491481338843133355E-15, -1.224646799147353207E-16, 1.000000000000000000 ) ) ;
#81 = DIRECTION ( 'NONE',  ( 0.0000000000000000000, -1.000000000000000000, 0.0000000000000000000 ) ) ;
#82 = DIRECTION ( 'NONE',  ( -4.275831445896958607E-31, -1.000000000000000000, -1.224646799147353207E-16 ) ) ;
#83 =( GEOMETRIC_REPRESENTATION_CONTEXT ( 3 ) GLOBAL_UNCERTAINTY_ASSIGNED_CONTEXT ( ( #90 ) ) GLOBAL_UNIT_ASSIGNED_CONTEXT ( ( #189, #134, #235 ) ) REPRESENTATION_CONTEXT ( 'NONE', 'WORKASPACE' ) );
#84 = PERSON ( 'UNSPECIFIED', 'UNSPECIFIED', 'UNSPECIFIED', ('UNSPECIFIED'), ('UNSPECIFIED'), ('UNSPECIFIED') ) ;
#85 = CARTESIAN_POINT ( 'NONE',  ( 7.832444522268758501E-14, -3.000000000000007994, 22.43301270189219565 ) ) ;
#86 = APPROVAL ( #154, 'UNSPECIFIED' ) ;
#87 = DIRECTION ( 'NONE',  ( 0.0000000000000000000, 1.000000000000000000, 0.0000000000000000000 ) ) ;
#88 = CARTESIAN_POINT ( 'NONE',  ( 8.134815675896508933E-14, -1.008190104336598567E-14, 23.29903810567664735 ) ) ;
#89 = DIRECTION ( 'NONE',  ( 1.000000000000000000, 0.0000000000000000000, 0.0000000000000000000 ) ) ;
#90 = UNCERTAINTY_MEASURE_WITH_UNIT (LENGTH_MEASURE( 1.000000000000000082E-05 ), #189, 'distance_accuracy_value', 'NONE');
#91 = DIRECTION ( 'NONE',  ( 0.0000000000000000000, 1.000000000000000000, 0.0000000000000000000 ) ) ;
#92 = ADVANCED_FACE ( 'NONE', ( #185, #149 ), #156, .F. ) ;
#93 = APPROVAL_DATE_TIME ( #159, #70 ) ;
#94 = EDGE_LOOP ( 'NONE', ( #120 ) ) ;
#95 = APPROVAL_PERSON_ORGANIZATION ( #67, #86, #210 ) ;
#96 = EDGE_CURVE ( 'NONE', #129, #129, #166, .T. ) ;
#97 = CARTESIAN_POINT ( 'NONE',  ( 4.888073874380386697E-14, 2.249639673992780664E-32, 14.00000000000000000 ) ) ;
#98 = FACE_OUTER_BOUND ( 'NONE', #234, .T. ) ;
#99 = CARTESIAN_POINT ( 'NONE',  ( 2.164718430082742680E-13, -7.592810154713590230E-15, 62.00000000000000000 ) ) ;
#100 = DIRECTION ( 'NONE',  ( -3.491481338843133355E-15, 1.224646799147353207E-16, -1.000000000000000000 ) ) ;
#101 = CARTESIAN_POINT ( 'NONE',  ( 0.0000000000000000000, 0.0000000000000000000, 0.0000000000000000000 ) ) ;
#102 = DIRECTION ( 'NONE',  ( 1.510825004591027679E-30, 1.000000000000000000, 4.327174794786742882E-16 ) ) ;
#103 = AXIS2_PLACEMENT_3D ( 'NONE', #126, #203, #146 ) ;
#104 = CARTESIAN_POINT ( 'NONE',  ( 2.164718430082742680E-13, -7.592810154713590230E-15, 62.00000000000000000 ) ) ;
#105 = AXIS2_PLACEMENT_3D ( 'NONE', #101, #23, #168 ) ;
#106 = VERTEX_POINT ( 'NONE', #27 ) ;
#107 = AXIS2_PLACEMENT_3D ( 'NONE', #45, #60, #167 ) ;
#108 = CARTESIAN_POINT ( 'NONE',  ( 4.888073874380386697E-14, -1.750000000000009770, 14.00000000000000000 ) ) ;
#109 = ORIENTED_EDGE ( 'NONE', *, *, #73, .F. ) ;
#110 = VERTEX_POINT ( 'NONE', #150 ) ;
#111 = ORIENTED_EDGE ( 'NONE', *, *, #96, .T. ) ;
#112 = COORDINATED_UNIVERSAL_TIME_OFFSET ( 1, 0, .AHEAD. ) ;
#113 = CALENDAR_DATE ( 2021, 13, 10 ) ;
#114 = ADVANCED_FACE ( 'NONE', ( #169 ), #153, .T. ) ;
#115 = COORDINATED_UNIVERSAL_TIME_OFFSET ( 1, 0, .AHEAD. ) ;
#116 = EDGE_LOOP ( 'NONE', ( #35 ) ) ;
#117 = FACE_BOUND ( 'NONE', #250, .T. ) ;
#118 = CONICAL_SURFACE ( 'NONE', #176, 2.300000000000001599, 0.7853981633974485010 ) ;
#119 = CC_DESIGN_APPROVAL ( #86, ( #39 ) ) ;
#120 = ORIENTED_EDGE ( 'NONE', *, *, #263, .F. ) ;
#121 = CYLINDRICAL_SURFACE ( 'NONE', #105, 1.750000000000003775 ) ;
#122 = FACE_OUTER_BOUND ( 'NONE', #161, .T. ) ;
#123 = APPLICATION_CONTEXT ( 'configuration controlled 3d designs of mechanical parts and assemblies' ) ;
#124 = CARTESIAN_POINT ( 'NONE',  ( 7.832444522268758501E-14, -9.707156713475876896E-15, 22.43301270189219565 ) ) ;
#125 = CIRCLE ( 'NONE', #22, 1.750000000000006883 ) ;
#126 = CARTESIAN_POINT ( 'NONE',  ( 2.164718430082742680E-13, 1.724723750061125849E-32, 62.00000000000000000 ) ) ;
#127 = ADVANCED_FACE ( 'NONE', ( #43, #98 ), #44, .T. ) ;
#128 = AXIS2_PLACEMENT_3D ( 'NONE', #227, #260, #81 ) ;
#129 = VERTEX_POINT ( 'NONE', #72 ) ;
#130 = APPROVAL_PERSON_ORGANIZATION ( #251, #219, #52 ) ;
#131 = APPLICATION_PROTOCOL_DEFINITION ( 'international standard', 'config_control_design', 1994, #160 ) ;
#132 = VERTEX_POINT ( 'NONE', #85 ) ;
#133 = CC_DESIGN_DATE_AND_TIME_ASSIGNMENT ( #208, #248, ( #188 ) ) ;
#134 =( NAMED_UNIT ( * ) PLANE_ANGLE_UNIT ( ) SI_UNIT ( $, .RADIAN. ) );
#135 = AXIS2_PLACEMENT_3D ( 'NONE', #104, #6, #87 ) ;
#136 = DIRECTION ( 'NONE',  ( 3.491481338843133355E-15, -4.327174794786742882E-16, 1.000000000000000000 ) ) ;
#137 = CALENDAR_DATE ( 2021, 13, 10 ) ;
#138 = ADVANCED_FACE ( 'NONE', ( #122, #244 ), #118, .T. ) ;
#139 = AXIS2_PLACEMENT_3D ( 'NONE', #262, #80, #184 ) ;
#140 = PERSON_AND_ORGANIZATION_ROLE ( 'creator' ) ;
#141 = ORIENTED_EDGE ( 'NONE', *, *, #231, .F. ) ;
#142 = DIRECTION ( 'NONE',  ( -3.491481338843133355E-15, 4.327174794786742882E-16, -1.000000000000000000 ) ) ;
#143 = AXIS2_PLACEMENT_3D ( 'NONE', #228, #183, #102 ) ;
#144 = CC_DESIGN_PERSON_AND_ORGANIZATION_ASSIGNMENT ( #218, #140, ( #39 ) ) ;
#145 = DIRECTION ( 'NONE',  ( -3.491481338843133355E-15, 1.224646799147353207E-16, -1.000000000000000000 ) ) ;
#146 = DIRECTION ( 'NONE',  ( 4.275831445896958607E-31, 1.000000000000000000, 1.224646799147353207E-16 ) ) ;
#147 = DIRECTION ( 'NONE',  ( 1.510825004591027855E-30, 1.000000000000000000, 4.327174794786742389E-16 ) ) ;
#148 = CC_DESIGN_DATE_AND_TIME_ASSIGNMENT ( #196, #12, ( #68 ) ) ;
#149 = FACE_OUTER_BOUND ( 'NONE', #116, .T. ) ;
#150 = CARTESIAN_POINT ( 'NONE',  ( 2.164718430082742680E-13, 2.299999999999994049, 62.00000000000000000 ) ) ;
#151 = PRODUCT_DEFINITION_SHAPE ( 'NONE', 'NONE',  #188 ) ;
#152 = CIRCLE ( 'NONE', #9, 1.883974596215569175 ) ;
#153 = CONICAL_SURFACE ( 'NONE', #139, 2.999999999999993783, 1.221730476396026388 ) ;
#154 = APPROVAL_STATUS ( 'not_yet_approved' ) ;
#155 = CIRCLE ( 'NONE', #135, 2.300000000000001599 ) ;
#156 = TOROIDAL_SURFACE ( 'NONE', #143, 2.750000000000006661, 0.9999999999999995559 ) ;
#157 = DESIGN_CONTEXT ( 'detailed design', #160, 'design' ) ;
#158 = CONICAL_SURFACE ( 'NONE', #252, 3.500000000000008438, 0.5235987755983005920 ) ;
#159 = DATE_AND_TIME ( #11, #195 ) ;
#160 = APPLICATION_CONTEXT ( 'configuration controlled 3d designs of mechanical parts and assemblies' ) ;
#161 = EDGE_LOOP ( 'NONE', ( #221 ) ) ;
#162 = AXIS2_PLACEMENT_3D ( 'NONE', #62, #63, #147 ) ;
#163 = DIRECTION ( 'NONE',  ( 0.0000000000000000000, 1.000000000000000000, 0.0000000000000000000 ) ) ;
#164 = ADVANCED_FACE ( 'NONE', ( #246, #245 ), #242, .T. ) ;
#165 = DIRECTION ( 'NONE',  ( -3.491481338843133355E-15, 1.224646799147353207E-16, -1.000000000000000000 ) ) ;
#166 = CIRCLE ( 'NONE', #128, 1.750000000000003775 ) ;
#167 = DIRECTION ( 'NONE',  ( 4.275831445896958607E-31, 1.000000000000000000, 1.224646799147353454E-16 ) ) ;
#168 = DIRECTION ( 'NONE',  ( 1.510825004591027855E-30, 1.000000000000000000, 4.327174794786742389E-16 ) ) ;
#169 = FACE_OUTER_BOUND ( 'NONE', #256, .T. ) ;
#170 = CALENDAR_DATE ( 2021, 13, 10 ) ;
#171 = PERSON_AND_ORGANIZATION_ROLE ( 'design_owner' ) ;
#172 = CC_DESIGN_PERSON_AND_ORGANIZATION_ASSIGNMENT ( #53, #222, ( #68 ) ) ;
#173 = VERTEX_POINT ( 'NONE', #3 ) ;
#174 = ORIENTED_EDGE ( 'NONE', *, *, #179, .F. ) ;
#175 = CARTESIAN_POINT ( 'NONE',  ( 2.140278060710840684E-13, 2.999999999999993783, 61.29999999999999716 ) ) ;
#176 = AXIS2_PLACEMENT_3D ( 'NONE', #99, #165, #163 ) ;
#177 = SECURITY_CLASSIFICATION_LEVEL ( 'unclassified' ) ;
#178 = ORIENTED_EDGE ( 'NONE', *, *, #41, .T. ) ;
#179 = EDGE_CURVE ( 'NONE', #173, #173, #152, .T. ) ;
#180 = DIRECTION ( 'NONE',  ( -4.275831445896958607E-31, -1.000000000000000000, -1.224646799147353207E-16 ) ) ;
#181 = AXIS2_PLACEMENT_3D ( 'NONE', #19, #145, #211 ) ;
#182 = LOCAL_TIME ( 13, 35, 55.00000000000000000, #232 ) ;
#183 = DIRECTION ( 'NONE',  ( -3.491481338843133355E-15, 4.327174794786742882E-16, -1.000000000000000000 ) ) ;
#184 = DIRECTION ( 'NONE',  ( -5.135813185032639159E-31, -1.000000000000000000, -1.445602896647342121E-16 ) ) ;
#185 = FACE_OUTER_BOUND ( 'NONE', #193, .T. ) ;
#186 = AXIS2_PLACEMENT_3D ( 'NONE', #124, #61, #59 ) ;
#187 = VERTEX_POINT ( 'NONE', #175 ) ;
#188 = PRODUCT_DEFINITION ( 'UNKNOWN', '', #39, #157 ) ;
#189 =( LENGTH_UNIT ( ) NAMED_UNIT ( * ) SI_UNIT ( .MILLI., .METRE. ) );
#190 = PRODUCT ( '43314', '43314', '', ( #69 ) ) ;
#191 = VERTEX_POINT ( 'NONE', #233 ) ;
#192 = ORGANIZATION ( 'UNSPECIFIED', 'UNSPECIFIED', '' ) ;
#193 = EDGE_LOOP ( 'NONE', ( #201 ) ) ;
#194 = COORDINATED_UNIVERSAL_TIME_OFFSET ( 1, 0, .AHEAD. ) ;
#195 = LOCAL_TIME ( 13, 35, 55.00000000000000000, #194 ) ;
#196 = DATE_AND_TIME ( #38, #10 ) ;
#197 = EDGE_CURVE ( 'NONE', #132, #132, #32, .T. ) ;
#198 = EDGE_LOOP ( 'NONE', ( #71 ) ) ;
#199 = APPROVAL_DATE_TIME ( #34, #86 ) ;
#200 = FACE_OUTER_BOUND ( 'NONE', #257, .T. ) ;
#201 = ORIENTED_EDGE ( 'NONE', *, *, #41, .F. ) ;
#202 = FACE_OUTER_BOUND ( 'NONE', #212, .T. ) ;
#203 = DIRECTION ( 'NONE',  ( -3.491481338843133355E-15, 1.224646799147353207E-16, -1.000000000000000000 ) ) ;
#204 = PLANE ( 'NONE',  #103 ) ;
#205 = ADVANCED_BREP_SHAPE_REPRESENTATION ( '43314', ( #238, #57, #1 ), #83 ) ;
#206 = DIRECTION ( 'NONE',  ( 3.491481338843133355E-15, -1.224646799147353207E-16, 1.000000000000000000 ) ) ;
#207 = APPROVAL_PERSON_ORGANIZATION ( #240, #70, #15 ) ;
#208 = DATE_AND_TIME ( #170, #182 ) ;
#209 = ADVANCED_FACE ( 'NONE', ( #226 ), #204, .F. ) ;
#210 = APPROVAL_ROLE ( '' ) ;
#211 = DIRECTION ( 'NONE',  ( 0.0000000000000000000, 1.000000000000000000, 0.0000000000000000000 ) ) ;
#212 = EDGE_LOOP ( 'NONE', ( #109 ) ) ;
#213 = PERSON_AND_ORGANIZATION ( #84, #192 ) ;
#214 = DIRECTION ( 'NONE',  ( 0.0000000000000000000, -1.000000000000000000, 0.0000000000000000000 ) ) ;
#215 = APPROVAL_DATE_TIME ( #47, #219 ) ;
#216 = AXIS2_PLACEMENT_3D ( 'NONE', #258, #79, #243 ) ;
#217 = APPROVAL_STATUS ( 'not_yet_approved' ) ;
#218 = PERSON_AND_ORGANIZATION ( #84, #192 ) ;
#219 = APPROVAL ( #237, 'UNSPECIFIED' ) ;
#220 = CC_DESIGN_APPROVAL ( #70, ( #68 ) ) ;
#221 = ORIENTED_EDGE ( 'NONE', *, *, #259, .F. ) ;
#222 = PERSON_AND_ORGANIZATION_ROLE ( 'classification_officer' ) ;
#223 = EDGE_LOOP ( 'NONE', ( #5 ) ) ;
#224 = ADVANCED_FACE ( 'NONE', ( #202 ), #261, .T. ) ;
#225 = EDGE_LOOP ( 'NONE', ( #141 ) ) ;
#226 = FACE_OUTER_BOUND ( 'NONE', #94, .T. ) ;
#227 = CARTESIAN_POINT ( 'NONE',  ( 4.888073874380386697E-14, -6.058044712701440824E-15, 14.00000000000000000 ) ) ;
#228 = CARTESIAN_POINT ( 'NONE',  ( 6.982962677686266711E-14, -8.673617379884035472E-15, 20.00000000000000000 ) ) ;
#229 = CARTESIAN_POINT ( 'NONE',  ( 4.888073874380386697E-14, -6.058044712701440824E-15, 14.00000000000000000 ) ) ;
#230 = DIRECTION ( 'NONE',  ( 0.0000000000000000000, 1.000000000000000000, 0.0000000000000000000 ) ) ;
#231 = EDGE_CURVE ( 'NONE', #191, #191, #65, .T. ) ;
#232 = COORDINATED_UNIVERSAL_TIME_OFFSET ( 1, 0, .AHEAD. ) ;
#233 = CARTESIAN_POINT ( 'NONE',  ( 2.223891741460949112E-15, -1.750000000000003775, 0.6369479099658635901 ) ) ;
#234 = EDGE_LOOP ( 'NONE', ( #14 ) ) ;
#235 =( NAMED_UNIT ( * ) SI_UNIT ( $, .STERADIAN. ) SOLID_ANGLE_UNIT ( ) );
#236 = EDGE_LOOP ( 'NONE', ( #178 ) ) ;
#237 = APPROVAL_STATUS ( 'not_yet_approved' ) ;
#238 = MANIFOLD_SOLID_BREP ( 'Corps-Déplacer/Copier1[1]', #239 ) ;
#239 = CLOSED_SHELL ( 'NONE', ( #127, #138, #209, #58, #8, #92, #48 ) ) ;
#240 = PERSON_AND_ORGANIZATION ( #84, #192 ) ;
#241 = ORIENTED_EDGE ( 'NONE', *, *, #197, .F. ) ;
#242 = CYLINDRICAL_SURFACE ( 'NONE', #162, 1.750000000000003775 ) ;
#243 = DIRECTION ( 'NONE',  ( -4.402125587170815298E-31, -1.000000000000000000, -1.239088197126288105E-16 ) ) ;
#244 = FACE_BOUND ( 'NONE', #29, .T. ) ;
#245 = FACE_OUTER_BOUND ( 'NONE', #225, .T. ) ;
#246 = FACE_OUTER_BOUND ( 'NONE', #78, .T. ) ;
#247 = PERSON_AND_ORGANIZATION ( #84, #192 ) ;
#248 = DATE_TIME_ROLE ( 'creation_date' ) ;
#249 = APPLICATION_PROTOCOL_DEFINITION ( 'international standard', 'config_control_design', 1994, #123 ) ;
#250 = EDGE_LOOP ( 'NONE', ( #174 ) ) ;
#251 = PERSON_AND_ORGANIZATION ( #84, #192 ) ;
#252 = AXIS2_PLACEMENT_3D ( 'NONE', #88, #136, #214 ) ;
#253 = CIRCLE ( 'NONE', #181, 3.000000000000001332 ) ;
#254 = FACE_OUTER_BOUND ( 'NONE', #54, .T. ) ;
#255 = CC_DESIGN_APPROVAL ( #219, ( #188 ) ) ;
#256 = EDGE_LOOP ( 'NONE', ( #37 ) ) ;
#257 = EDGE_LOOP ( 'NONE', ( #241 ) ) ;
#258 = CARTESIAN_POINT ( 'NONE',  ( 2.223891741460949901E-15, -7.800362191632917377E-17, 0.6369479099658638122 ) ) ;
#259 = EDGE_CURVE ( 'NONE', #187, #187, #253, .T. ) ;
#260 = DIRECTION ( 'NONE',  ( -3.491481338843133355E-15, 1.224646799147353207E-16, -1.000000000000000000 ) ) ;
#261 = PLANE ( 'NONE',  #40 ) ;
#262 = CARTESIAN_POINT ( 'NONE',  ( 3.812385842504470444E-15, -1.337204947137066162E-16, 1.091910702798619459 ) ) ;
#263 = EDGE_CURVE ( 'NONE', #110, #110, #155, .T. ) ;
ENDSEC;
END-ISO-10303-21;
